ISO-10303-21;
HEADER;
/* Generated by software containing ST-Developer
 * from STEP Tools, Inc. (www.steptools.com) 
 */

FILE_DESCRIPTION(
/* description */ (''),
/* implementation_level */ '2;1');

FILE_NAME(
/* name */ 
'D:\\Exports\\Inventor Pro\\Finals for Review\\STORE\\LA00010.stp',
/* time_stamp */ '2018-03-05T15:24:57-05:00',
/* author */ ('James'),
/* organization */ (''),
/* preprocessor_version */ 'ST-DEVELOPER v16.5',
/* originating_system */ 'Autodesk Inventor 2017',
/* authorisation */ '');

FILE_SCHEMA (('AUTOMOTIVE_DESIGN { 1 0 10303 214 3 1 1 }'));
ENDSEC;

DATA;
#10=MECHANICAL_DESIGN_GEOMETRIC_PRESENTATION_REPRESENTATION('',(#96,#97,
#102,#98,#99,#103,#100,#101,#106,#104,#105),#213);
#11=SHAPE_REPRESENTATION_RELATIONSHIP('SRR','None',#225,#12);
#12=ADVANCED_BREP_SHAPE_REPRESENTATION('',(#119),#212);
#13=ORIENTED_CLOSED_SHELL('',*,#117,.F.);
#14=PLANE('',#130);
#15=PLANE('',#131);
#16=PLANE('',#135);
#17=PLANE('',#137);
#18=PLANE('',#141);
#19=PLANE('',#143);
#20=FACE_BOUND('',#37,.T.);
#21=FACE_BOUND('',#41,.T.);
#22=FACE_BOUND('',#43,.T.);
#23=FACE_BOUND('',#46,.T.);
#24=FACE_BOUND('',#48,.T.);
#25=FACE_BOUND('',#51,.T.);
#26=FACE_OUTER_BOUND('',#36,.T.);
#27=FACE_OUTER_BOUND('',#38,.T.);
#28=FACE_OUTER_BOUND('',#39,.T.);
#29=FACE_OUTER_BOUND('',#40,.T.);
#30=FACE_OUTER_BOUND('',#42,.T.);
#31=FACE_OUTER_BOUND('',#44,.T.);
#32=FACE_OUTER_BOUND('',#45,.T.);
#33=FACE_OUTER_BOUND('',#47,.T.);
#34=FACE_OUTER_BOUND('',#49,.T.);
#35=FACE_OUTER_BOUND('',#50,.T.);
#36=EDGE_LOOP('',(#76));
#37=EDGE_LOOP('',(#77));
#38=EDGE_LOOP('',(#78));
#39=EDGE_LOOP('',(#79));
#40=EDGE_LOOP('',(#80));
#41=EDGE_LOOP('',(#81));
#42=EDGE_LOOP('',(#82));
#43=EDGE_LOOP('',(#83));
#44=EDGE_LOOP('',(#84));
#45=EDGE_LOOP('',(#85));
#46=EDGE_LOOP('',(#86));
#47=EDGE_LOOP('',(#87));
#48=EDGE_LOOP('',(#88));
#49=EDGE_LOOP('',(#89));
#50=EDGE_LOOP('',(#90));
#51=EDGE_LOOP('',(#91));
#52=CIRCLE('',#128,0.326);
#53=CIRCLE('',#129,0.326);
#54=CIRCLE('',#133,0.375001);
#55=CIRCLE('',#134,0.375001);
#56=CIRCLE('',#136,0.375);
#57=CIRCLE('',#139,0.375001);
#58=CIRCLE('',#140,0.375001);
#59=CIRCLE('',#142,0.375);
#60=VERTEX_POINT('',#185);
#61=VERTEX_POINT('',#187);
#62=VERTEX_POINT('',#192);
#63=VERTEX_POINT('',#194);
#64=VERTEX_POINT('',#197);
#65=VERTEX_POINT('',#201);
#66=VERTEX_POINT('',#203);
#67=VERTEX_POINT('',#206);
#68=EDGE_CURVE('',#60,#60,#52,.T.);
#69=EDGE_CURVE('',#61,#61,#53,.T.);
#70=EDGE_CURVE('',#62,#62,#54,.T.);
#71=EDGE_CURVE('',#63,#63,#55,.T.);
#72=EDGE_CURVE('',#64,#64,#56,.T.);
#73=EDGE_CURVE('',#65,#65,#57,.T.);
#74=EDGE_CURVE('',#66,#66,#58,.T.);
#75=EDGE_CURVE('',#67,#67,#59,.T.);
#76=ORIENTED_EDGE('',*,*,#68,.T.);
#77=ORIENTED_EDGE('',*,*,#69,.T.);
#78=ORIENTED_EDGE('',*,*,#69,.F.);
#79=ORIENTED_EDGE('',*,*,#68,.F.);
#80=ORIENTED_EDGE('',*,*,#70,.F.);
#81=ORIENTED_EDGE('',*,*,#71,.T.);
#82=ORIENTED_EDGE('',*,*,#71,.F.);
#83=ORIENTED_EDGE('',*,*,#72,.T.);
#84=ORIENTED_EDGE('',*,*,#70,.T.);
#85=ORIENTED_EDGE('',*,*,#73,.F.);
#86=ORIENTED_EDGE('',*,*,#74,.T.);
#87=ORIENTED_EDGE('',*,*,#74,.F.);
#88=ORIENTED_EDGE('',*,*,#75,.T.);
#89=ORIENTED_EDGE('',*,*,#73,.T.);
#90=ORIENTED_EDGE('',*,*,#72,.F.);
#91=ORIENTED_EDGE('',*,*,#75,.F.);
#92=CYLINDRICAL_SURFACE('',#127,0.326);
#93=CYLINDRICAL_SURFACE('',#132,0.375001);
#94=CYLINDRICAL_SURFACE('',#138,0.375001);
#95=CYLINDRICAL_SURFACE('',#144,0.375);
#96=STYLED_ITEM('',(#235),#107);
#97=STYLED_ITEM('',(#236),#108);
#98=STYLED_ITEM('',(#236),#109);
#99=STYLED_ITEM('',(#236),#110);
#100=STYLED_ITEM('',(#236),#111);
#101=STYLED_ITEM('',(#236),#112);
#102=STYLED_ITEM('',(#236),#113);
#103=STYLED_ITEM('',(#236),#114);
#104=STYLED_ITEM('',(#236),#115);
#105=STYLED_ITEM('',(#235),#116);
#106=STYLED_ITEM('',(#234),#119);
#107=ADVANCED_FACE('',(#26,#20),#92,.F.);
#108=ADVANCED_FACE('',(#27),#14,.T.);
#109=ADVANCED_FACE('',(#28),#15,.T.);
#110=ADVANCED_FACE('',(#29,#21),#93,.T.);
#111=ADVANCED_FACE('',(#30,#22),#16,.T.);
#112=ADVANCED_FACE('',(#31),#17,.T.);
#113=ADVANCED_FACE('',(#32,#23),#94,.T.);
#114=ADVANCED_FACE('',(#33,#24),#18,.T.);
#115=ADVANCED_FACE('',(#34),#19,.T.);
#116=ADVANCED_FACE('',(#35,#25),#95,.T.);
#117=CLOSED_SHELL('',(#107,#108,#109));
#118=CLOSED_SHELL('',(#110,#111,#112,#113,#114,#115,#116));
#119=BREP_WITH_VOIDS('Solid1',#118,(#13));
#120=DATE_TIME_ROLE('creation_date');
#121=APPLIED_DATE_AND_TIME_ASSIGNMENT(#122,#120,(#227));
#122=DATE_AND_TIME(#123,#124);
#123=CALENDAR_DATE(2018,5,3);
#124=LOCAL_TIME(20,24,48.,#125);
#125=COORDINATED_UNIVERSAL_TIME_OFFSET(0,0,.BEHIND.);
#126=AXIS2_PLACEMENT_3D('placement',#183,#145,#146);
#127=AXIS2_PLACEMENT_3D('',#184,#147,#148);
#128=AXIS2_PLACEMENT_3D('',#186,#149,#150);
#129=AXIS2_PLACEMENT_3D('',#188,#151,#152);
#130=AXIS2_PLACEMENT_3D('',#189,#153,#154);
#131=AXIS2_PLACEMENT_3D('',#190,#155,#156);
#132=AXIS2_PLACEMENT_3D('',#191,#157,#158);
#133=AXIS2_PLACEMENT_3D('',#193,#159,#160);
#134=AXIS2_PLACEMENT_3D('',#195,#161,#162);
#135=AXIS2_PLACEMENT_3D('',#196,#163,#164);
#136=AXIS2_PLACEMENT_3D('',#198,#165,#166);
#137=AXIS2_PLACEMENT_3D('',#199,#167,#168);
#138=AXIS2_PLACEMENT_3D('',#200,#169,#170);
#139=AXIS2_PLACEMENT_3D('',#202,#171,#172);
#140=AXIS2_PLACEMENT_3D('',#204,#173,#174);
#141=AXIS2_PLACEMENT_3D('',#205,#175,#176);
#142=AXIS2_PLACEMENT_3D('',#207,#177,#178);
#143=AXIS2_PLACEMENT_3D('',#208,#179,#180);
#144=AXIS2_PLACEMENT_3D('',#209,#181,#182);
#145=DIRECTION('axis',(0.,0.,1.));
#146=DIRECTION('refdir',(1.,0.,0.));
#147=DIRECTION('center_axis',(1.,-3.59418069637883E-16,-6.0394884235756E-16));
#148=DIRECTION('ref_axis',(5.96661764005443E-16,0.888276582697499,0.459308951176931));
#149=DIRECTION('center_axis',(1.,-1.97024700286088E-16,-5.09389441877156E-17));
#150=DIRECTION('ref_axis',(-1.36074441104873E-16,-0.833496754574997,0.5525243525067));
#151=DIRECTION('center_axis',(-1.,-2.3801690867E-17,3.73871171545958E-17));
#152=DIRECTION('ref_axis',(-1.79708849092472E-17,-0.553350112695606,-0.832948769600964));
#153=DIRECTION('center_axis',(1.,2.3801690867E-17,-3.73871171545958E-17));
#154=DIRECTION('ref_axis',(0.,-0.832948769600964,0.553350112695606));
#155=DIRECTION('center_axis',(-1.,1.97024700286088E-16,5.09389441877156E-17));
#156=DIRECTION('ref_axis',(0.,-0.552524352506699,-0.833496754574997));
#157=DIRECTION('center_axis',(1.,-1.97024700286088E-16,-5.09389441877156E-17));
#158=DIRECTION('ref_axis',(1.51318389615335E-16,0.5525243525067,0.833496754574997));
#159=DIRECTION('center_axis',(1.,-1.97024700286088E-16,-5.09389441877156E-17));
#160=DIRECTION('ref_axis',(-1.36074441104873E-16,-0.833496754574997,0.5525243525067));
#161=DIRECTION('center_axis',(1.,-1.97024700286088E-16,-5.09389441877156E-17));
#162=DIRECTION('ref_axis',(-1.36074441104873E-16,-0.833496754574997,0.5525243525067));
#163=DIRECTION('center_axis',(-1.,1.97024700286088E-16,5.09389441877156E-17));
#164=DIRECTION('ref_axis',(0.,-0.5525243525067,-0.833496754574997));
#165=DIRECTION('center_axis',(1.,-1.97024700286088E-16,-5.09389441877156E-17));
#166=DIRECTION('ref_axis',(5.96661764005443E-16,0.888276582697499,0.459308951176931));
#167=DIRECTION('center_axis',(1.,-1.97024700286088E-16,-5.09389441877156E-17));
#168=DIRECTION('ref_axis',(0.,0.552524352506699,0.833496754574997));
#169=DIRECTION('center_axis',(-1.,-2.3801690867E-17,3.73871171545958E-17));
#170=DIRECTION('ref_axis',(-4.05137546129496E-17,0.832948769600964,-0.553350112695606));
#171=DIRECTION('center_axis',(-1.,-2.3801690867E-17,3.73871171545958E-17));
#172=DIRECTION('ref_axis',(-1.79708849092472E-17,-0.553350112695606,-0.832948769600964));
#173=DIRECTION('center_axis',(-1.,-2.3801690867E-17,3.73871171545958E-17));
#174=DIRECTION('ref_axis',(-1.79708849092472E-17,-0.553350112695606,-0.832948769600964));
#175=DIRECTION('center_axis',(1.,2.3801690867E-17,-3.73871171545958E-17));
#176=DIRECTION('ref_axis',(0.,-0.832948769600964,0.553350112695606));
#177=DIRECTION('center_axis',(-1.,-2.3801690867E-17,3.73871171545958E-17));
#178=DIRECTION('ref_axis',(5.96661764005443E-16,0.888276582697499,0.459308951176931));
#179=DIRECTION('center_axis',(-1.,-2.3801690867E-17,3.73871171545958E-17));
#180=DIRECTION('ref_axis',(0.,0.832948769600964,-0.553350112695606));
#181=DIRECTION('center_axis',(1.,-3.59418069637883E-16,-6.0394884235756E-16));
#182=DIRECTION('ref_axis',(5.96661764005443E-16,0.888276582697499,0.459308951176931));
#183=CARTESIAN_POINT('',(0.,0.,0.));
#184=CARTESIAN_POINT('Origin',(3.83567256813199,2.42538593596211,-0.72333612889624));
#185=CARTESIAN_POINT('',(9.45442256813199,2.60550887487929,-0.45161618690479));
#186=CARTESIAN_POINT('Origin',(9.45442256813199,2.42538593596211,-0.723336128896239));
#187=CARTESIAN_POINT('',(4.21692256813199,2.69692723485203,-0.903728265635007));
#188=CARTESIAN_POINT('Origin',(4.21692256813199,2.42538593596211,-0.723336128896239));
#189=CARTESIAN_POINT('Origin',(4.21692256813199,2.69692723485203,-0.903728265635007));
#190=CARTESIAN_POINT('Origin',(9.45442256813199,2.60550887487929,-0.45161618690479));
#191=CARTESIAN_POINT('Origin',(9.91067256813199,2.42538593596211,-0.723336128896239));
#192=CARTESIAN_POINT('',(9.98567256813199,2.63258312067647,-0.410774012433861));
#193=CARTESIAN_POINT('Origin',(9.98567256813199,2.42538593596211,-0.723336128896239));
#194=CARTESIAN_POINT('',(9.83567256813199,2.63258312067647,-0.410774012433861));
#195=CARTESIAN_POINT('Origin',(9.83567256813199,2.42538593596211,-0.723336128896239));
#196=CARTESIAN_POINT('Origin',(9.83567256813199,2.63258312067647,-0.410774012433861));
#197=CARTESIAN_POINT('',(9.83567256813199,2.09228221745055,-0.895576985587592));
#198=CARTESIAN_POINT('Origin',(9.83567256813199,2.42538593596211,-0.723336128896243));
#199=CARTESIAN_POINT('Origin',(9.98567256813199,2.42538593596211,-0.723336128896239));
#200=CARTESIAN_POINT('Origin',(3.76067256813199,2.42538593596211,-0.723336128896239));
#201=CARTESIAN_POINT('',(3.68567256813199,2.73774255751124,-0.930842974507204));
#202=CARTESIAN_POINT('Origin',(3.68567256813199,2.42538593596211,-0.723336128896239));
#203=CARTESIAN_POINT('',(3.83567256813199,2.73774255751124,-0.930842974507204));
#204=CARTESIAN_POINT('Origin',(3.83567256813199,2.42538593596211,-0.723336128896239));
#205=CARTESIAN_POINT('Origin',(3.83567256813199,2.73774255751124,-0.930842974507204));
#206=CARTESIAN_POINT('',(3.83567256813199,2.09228221745055,-0.895576985587589));
#207=CARTESIAN_POINT('Origin',(3.83567256813199,2.42538593596211,-0.72333612889624));
#208=CARTESIAN_POINT('Origin',(3.68567256813199,2.42538593596211,-0.723336128896239));
#209=CARTESIAN_POINT('Origin',(3.83567256813199,2.42538593596211,-0.72333612889624));
#210=UNCERTAINTY_MEASURE_WITH_UNIT(LENGTH_MEASURE(0.000393700787401575),
#214,'DISTANCE_ACCURACY_VALUE',
'Maximum model space distance between geometric entities at asserted c
onnectivities');
#211=UNCERTAINTY_MEASURE_WITH_UNIT(LENGTH_MEASURE(1.E-6),#215,
'DISTANCE_ACCURACY_VALUE',
'Maximum model space distance between geometric entities at asserted c
onnectivities');
#212=(
GEOMETRIC_REPRESENTATION_CONTEXT(3)
GLOBAL_UNCERTAINTY_ASSIGNED_CONTEXT((#210))
GLOBAL_UNIT_ASSIGNED_CONTEXT((#214,#220,#217))
REPRESENTATION_CONTEXT('','3D')
);
#213=(
GEOMETRIC_REPRESENTATION_CONTEXT(3)
GLOBAL_UNCERTAINTY_ASSIGNED_CONTEXT((#211))
GLOBAL_UNIT_ASSIGNED_CONTEXT((#215,#220,#217))
REPRESENTATION_CONTEXT('','3D')
);
#214=(
CONVERSION_BASED_UNIT('__CONSTANT UNIT inch',#216)
LENGTH_UNIT()
NAMED_UNIT(#219)
);
#215=(
LENGTH_UNIT()
NAMED_UNIT(*)
SI_UNIT(.MILLI.,.METRE.)
);
#216=LENGTH_MEASURE_WITH_UNIT(LENGTH_MEASURE(25.4),#215);
#217=(
NAMED_UNIT(*)
SI_UNIT($,.STERADIAN.)
SOLID_ANGLE_UNIT()
);
#218=DIMENSIONAL_EXPONENTS(0.,0.,0.,0.,0.,0.,0.);
#219=DIMENSIONAL_EXPONENTS(1.,0.,0.,0.,0.,0.,0.);
#220=(
CONVERSION_BASED_UNIT('degree',#222)
NAMED_UNIT(#218)
PLANE_ANGLE_UNIT()
);
#221=(
NAMED_UNIT(*)
PLANE_ANGLE_UNIT()
SI_UNIT($,.RADIAN.)
);
#222=PLANE_ANGLE_MEASURE_WITH_UNIT(PLANE_ANGLE_MEASURE(0.01745329252),#221);
#223=SHAPE_DEFINITION_REPRESENTATION(#224,#225);
#224=PRODUCT_DEFINITION_SHAPE('',$,#227);
#225=SHAPE_REPRESENTATION('',(#126),#212);
#226=PRODUCT_DEFINITION_CONTEXT('part definition',#231,'design');
#227=PRODUCT_DEFINITION('LA00010','LA00010',#228,#226);
#228=PRODUCT_DEFINITION_FORMATION('',$,#233);
#229=PRODUCT_RELATED_PRODUCT_CATEGORY('LA00010','LA00010',(#233));
#230=APPLICATION_PROTOCOL_DEFINITION('international standard',
'automotive_design',2009,#231);
#231=APPLICATION_CONTEXT(
'Core Data for Automotive Mechanical Design Process');
#232=PRODUCT_CONTEXT('part definition',#231,'mechanical');
#233=PRODUCT('LA00010','LA00010',$,(#232));
#234=PRESENTATION_STYLE_ASSIGNMENT((#237));
#235=PRESENTATION_STYLE_ASSIGNMENT((#238));
#236=PRESENTATION_STYLE_ASSIGNMENT((#239));
#237=SURFACE_STYLE_USAGE(.BOTH.,#240);
#238=SURFACE_STYLE_USAGE(.BOTH.,#241);
#239=SURFACE_STYLE_USAGE(.BOTH.,#242);
#240=SURFACE_SIDE_STYLE('',(#243));
#241=SURFACE_SIDE_STYLE('',(#244));
#242=SURFACE_SIDE_STYLE('',(#245));
#243=SURFACE_STYLE_FILL_AREA(#246);
#244=SURFACE_STYLE_FILL_AREA(#247);
#245=SURFACE_STYLE_FILL_AREA(#248);
#246=FILL_AREA_STYLE('',(#249));
#247=FILL_AREA_STYLE('',(#250));
#248=FILL_AREA_STYLE('',(#251));
#249=FILL_AREA_STYLE_COLOUR('',#252);
#250=FILL_AREA_STYLE_COLOUR('',#253);
#251=FILL_AREA_STYLE_COLOUR('',#254);
#252=COLOUR_RGB('',0.749019607843137,0.749019607843137,0.749019607843137);
#253=COLOUR_RGB('',0.745098039215686,0.737254901960784,0.729411764705882);
#254=COLOUR_RGB('',0.250980392156863,0.250980392156863,0.250980392156863);
ENDSEC;
END-ISO-10303-21;
