ISO-10303-21;
HEADER;
/* Generated by software containing ST-Developer
 * from STEP Tools, Inc. (www.steptools.com) 
 */

FILE_DESCRIPTION(
/* description */ (''),
/* implementation_level */ '2;1');

FILE_NAME(
/* name */ 
'D:\\Exports\\Inventor Pro\\Finals for Review\\NA\\NA02P125_A.stp',
/* time_stamp */ '2018-03-19T15:11:46-04:00',
/* author */ ('James'),
/* organization */ (''),
/* preprocessor_version */ 'ST-DEVELOPER v16.5',
/* originating_system */ 'Autodesk Inventor 2017',
/* authorisation */ '');

FILE_SCHEMA (('AUTOMOTIVE_DESIGN { 1 0 10303 214 3 1 1 }'));
ENDSEC;

DATA;
#10=MECHANICAL_DESIGN_GEOMETRIC_PRESENTATION_REPRESENTATION('',(#13),#175);
#11=SHAPE_REPRESENTATION_RELATIONSHIP('SRR','None',#187,#12);
#12=ADVANCED_BREP_SHAPE_REPRESENTATION('',(#14),#174);
#13=STYLED_ITEM('',(#196),#14);
#14=MANIFOLD_SOLID_BREP('Solid1',#94);
#15=CONICAL_SURFACE('',#116,0.499999999999999,45.);
#16=FACE_BOUND('',#35,.T.);
#17=FACE_BOUND('',#37,.T.);
#18=FACE_BOUND('',#39,.T.);
#19=FACE_BOUND('',#41,.T.);
#20=FACE_BOUND('',#43,.T.);
#21=FACE_BOUND('',#46,.T.);
#22=CYLINDRICAL_SURFACE('',#104,0.999999999999999);
#23=CYLINDRICAL_SURFACE('',#109,0.935);
#24=CYLINDRICAL_SURFACE('',#113,1.);
#25=FACE_OUTER_BOUND('',#33,.T.);
#26=FACE_OUTER_BOUND('',#34,.T.);
#27=FACE_OUTER_BOUND('',#36,.T.);
#28=FACE_OUTER_BOUND('',#38,.T.);
#29=FACE_OUTER_BOUND('',#40,.T.);
#30=FACE_OUTER_BOUND('',#42,.T.);
#31=FACE_OUTER_BOUND('',#44,.T.);
#32=FACE_OUTER_BOUND('',#45,.T.);
#33=EDGE_LOOP('',(#68));
#34=EDGE_LOOP('',(#69));
#35=EDGE_LOOP('',(#70));
#36=EDGE_LOOP('',(#71));
#37=EDGE_LOOP('',(#72));
#38=EDGE_LOOP('',(#73));
#39=EDGE_LOOP('',(#74));
#40=EDGE_LOOP('',(#75));
#41=EDGE_LOOP('',(#76));
#42=EDGE_LOOP('',(#77));
#43=EDGE_LOOP('',(#78));
#44=EDGE_LOOP('',(#79));
#45=EDGE_LOOP('',(#80));
#46=EDGE_LOOP('',(#81));
#47=CIRCLE('',#103,0.4375);
#48=CIRCLE('',#105,0.999999999999999);
#49=CIRCLE('',#106,0.999999999999999);
#50=CIRCLE('',#108,0.935);
#51=CIRCLE('',#110,0.935);
#52=CIRCLE('',#112,1.);
#53=CIRCLE('',#114,1.);
#54=VERTEX_POINT('',#151);
#55=VERTEX_POINT('',#154);
#56=VERTEX_POINT('',#156);
#57=VERTEX_POINT('',#159);
#58=VERTEX_POINT('',#162);
#59=VERTEX_POINT('',#165);
#60=VERTEX_POINT('',#168);
#61=EDGE_CURVE('',#54,#54,#47,.T.);
#62=EDGE_CURVE('',#55,#55,#48,.T.);
#63=EDGE_CURVE('',#56,#56,#49,.T.);
#64=EDGE_CURVE('',#57,#57,#50,.T.);
#65=EDGE_CURVE('',#58,#58,#51,.T.);
#66=EDGE_CURVE('',#59,#59,#52,.T.);
#67=EDGE_CURVE('',#60,#60,#53,.T.);
#68=ORIENTED_EDGE('',*,*,#61,.F.);
#69=ORIENTED_EDGE('',*,*,#62,.F.);
#70=ORIENTED_EDGE('',*,*,#63,.T.);
#71=ORIENTED_EDGE('',*,*,#62,.T.);
#72=ORIENTED_EDGE('',*,*,#64,.F.);
#73=ORIENTED_EDGE('',*,*,#65,.F.);
#74=ORIENTED_EDGE('',*,*,#64,.T.);
#75=ORIENTED_EDGE('',*,*,#66,.F.);
#76=ORIENTED_EDGE('',*,*,#65,.T.);
#77=ORIENTED_EDGE('',*,*,#67,.F.);
#78=ORIENTED_EDGE('',*,*,#66,.T.);
#79=ORIENTED_EDGE('',*,*,#67,.T.);
#80=ORIENTED_EDGE('',*,*,#61,.T.);
#81=ORIENTED_EDGE('',*,*,#63,.F.);
#82=PLANE('',#102);
#83=PLANE('',#107);
#84=PLANE('',#111);
#85=PLANE('',#115);
#86=ADVANCED_FACE('',(#25),#82,.F.);
#87=ADVANCED_FACE('',(#26,#16),#22,.T.);
#88=ADVANCED_FACE('',(#27,#17),#83,.T.);
#89=ADVANCED_FACE('',(#28,#18),#23,.T.);
#90=ADVANCED_FACE('',(#29,#19),#84,.T.);
#91=ADVANCED_FACE('',(#30,#20),#24,.T.);
#92=ADVANCED_FACE('',(#31),#85,.T.);
#93=ADVANCED_FACE('',(#32,#21),#15,.T.);
#94=CLOSED_SHELL('',(#86,#87,#88,#89,#90,#91,#92,#93));
#95=DATE_TIME_ROLE('creation_date');
#96=APPLIED_DATE_AND_TIME_ASSIGNMENT(#97,#95,(#189));
#97=DATE_AND_TIME(#98,#99);
#98=CALENDAR_DATE(2017,6,3);
#99=LOCAL_TIME(14,27,29.,#100);
#100=COORDINATED_UNIVERSAL_TIME_OFFSET(0,0,.BEHIND.);
#101=AXIS2_PLACEMENT_3D('placement',#149,#117,#118);
#102=AXIS2_PLACEMENT_3D('',#150,#119,#120);
#103=AXIS2_PLACEMENT_3D('',#152,#121,#122);
#104=AXIS2_PLACEMENT_3D('',#153,#123,#124);
#105=AXIS2_PLACEMENT_3D('',#155,#125,#126);
#106=AXIS2_PLACEMENT_3D('',#157,#127,#128);
#107=AXIS2_PLACEMENT_3D('',#158,#129,#130);
#108=AXIS2_PLACEMENT_3D('',#160,#131,#132);
#109=AXIS2_PLACEMENT_3D('',#161,#133,#134);
#110=AXIS2_PLACEMENT_3D('',#163,#135,#136);
#111=AXIS2_PLACEMENT_3D('',#164,#137,#138);
#112=AXIS2_PLACEMENT_3D('',#166,#139,#140);
#113=AXIS2_PLACEMENT_3D('',#167,#141,#142);
#114=AXIS2_PLACEMENT_3D('',#169,#143,#144);
#115=AXIS2_PLACEMENT_3D('',#170,#145,#146);
#116=AXIS2_PLACEMENT_3D('',#171,#147,#148);
#117=DIRECTION('axis',(0.,0.,1.));
#118=DIRECTION('refdir',(1.,0.,0.));
#119=DIRECTION('center_axis',(0.,0.,1.));
#120=DIRECTION('ref_axis',(1.,0.,0.));
#121=DIRECTION('center_axis',(0.,0.,1.));
#122=DIRECTION('ref_axis',(1.,0.,0.));
#123=DIRECTION('center_axis',(0.,0.,1.));
#124=DIRECTION('ref_axis',(1.,0.,0.));
#125=DIRECTION('center_axis',(0.,0.,1.));
#126=DIRECTION('ref_axis',(1.,0.,0.));
#127=DIRECTION('center_axis',(0.,0.,1.));
#128=DIRECTION('ref_axis',(1.,0.,0.));
#129=DIRECTION('center_axis',(0.,0.,1.));
#130=DIRECTION('ref_axis',(1.,0.,0.));
#131=DIRECTION('center_axis',(0.,0.,1.));
#132=DIRECTION('ref_axis',(1.,0.,0.));
#133=DIRECTION('center_axis',(0.,0.,1.));
#134=DIRECTION('ref_axis',(1.,0.,0.));
#135=DIRECTION('center_axis',(0.,0.,1.));
#136=DIRECTION('ref_axis',(1.,0.,0.));
#137=DIRECTION('center_axis',(0.,0.,-1.));
#138=DIRECTION('ref_axis',(-1.,0.,0.));
#139=DIRECTION('center_axis',(0.,0.,1.));
#140=DIRECTION('ref_axis',(1.,0.,0.));
#141=DIRECTION('center_axis',(0.,0.,1.));
#142=DIRECTION('ref_axis',(1.,0.,0.));
#143=DIRECTION('center_axis',(0.,0.,1.));
#144=DIRECTION('ref_axis',(1.,0.,0.));
#145=DIRECTION('center_axis',(0.,0.,1.));
#146=DIRECTION('ref_axis',(1.,0.,0.));
#147=DIRECTION('center_axis',(0.,0.,1.));
#148=DIRECTION('ref_axis',(1.,0.,0.));
#149=CARTESIAN_POINT('',(0.,0.,0.));
#150=CARTESIAN_POINT('Origin',(0.,0.,-3.6925));
#151=CARTESIAN_POINT('',(-0.4375,-5.35782974626967E-17,-3.6925));
#152=CARTESIAN_POINT('Origin',(0.,0.,-3.6925));
#153=CARTESIAN_POINT('Origin',(0.,0.,-3.065));
#154=CARTESIAN_POINT('',(0.999999999999999,0.,-3.));
#155=CARTESIAN_POINT('Origin',(0.,0.,-3.));
#156=CARTESIAN_POINT('',(0.999999999999999,0.,-3.13));
#157=CARTESIAN_POINT('Origin',(0.,0.,-3.13));
#158=CARTESIAN_POINT('Origin',(0.935,0.,-3.));
#159=CARTESIAN_POINT('',(0.935,0.,-3.));
#160=CARTESIAN_POINT('Origin',(0.,0.,-3.));
#161=CARTESIAN_POINT('Origin',(0.,0.,-2.375));
#162=CARTESIAN_POINT('',(0.935,0.,-1.75));
#163=CARTESIAN_POINT('Origin',(0.,0.,-1.75));
#164=CARTESIAN_POINT('Origin',(1.,0.,-1.75));
#165=CARTESIAN_POINT('',(1.,0.,-1.75));
#166=CARTESIAN_POINT('Origin',(0.,0.,-1.75));
#167=CARTESIAN_POINT('Origin',(0.,0.,-0.875));
#168=CARTESIAN_POINT('',(1.,0.,0.));
#169=CARTESIAN_POINT('Origin',(0.,0.,0.));
#170=CARTESIAN_POINT('Origin',(0.9,0.,0.));
#171=CARTESIAN_POINT('Origin',(0.,0.,-3.63));
#172=UNCERTAINTY_MEASURE_WITH_UNIT(LENGTH_MEASURE(0.000393700787401575),
#176,'DISTANCE_ACCURACY_VALUE',
'Maximum model space distance between geometric entities at asserted c
onnectivities');
#173=UNCERTAINTY_MEASURE_WITH_UNIT(LENGTH_MEASURE(1.E-6),#177,
'DISTANCE_ACCURACY_VALUE',
'Maximum model space distance between geometric entities at asserted c
onnectivities');
#174=(
GEOMETRIC_REPRESENTATION_CONTEXT(3)
GLOBAL_UNCERTAINTY_ASSIGNED_CONTEXT((#172))
GLOBAL_UNIT_ASSIGNED_CONTEXT((#176,#182,#179))
REPRESENTATION_CONTEXT('','3D')
);
#175=(
GEOMETRIC_REPRESENTATION_CONTEXT(3)
GLOBAL_UNCERTAINTY_ASSIGNED_CONTEXT((#173))
GLOBAL_UNIT_ASSIGNED_CONTEXT((#177,#182,#179))
REPRESENTATION_CONTEXT('','3D')
);
#176=(
CONVERSION_BASED_UNIT('__CONSTANT UNIT inch',#178)
LENGTH_UNIT()
NAMED_UNIT(#181)
);
#177=(
LENGTH_UNIT()
NAMED_UNIT(*)
SI_UNIT(.MILLI.,.METRE.)
);
#178=LENGTH_MEASURE_WITH_UNIT(LENGTH_MEASURE(25.4),#177);
#179=(
NAMED_UNIT(*)
SI_UNIT($,.STERADIAN.)
SOLID_ANGLE_UNIT()
);
#180=DIMENSIONAL_EXPONENTS(0.,0.,0.,0.,0.,0.,0.);
#181=DIMENSIONAL_EXPONENTS(1.,0.,0.,0.,0.,0.,0.);
#182=(
CONVERSION_BASED_UNIT('degree',#184)
NAMED_UNIT(#180)
PLANE_ANGLE_UNIT()
);
#183=(
NAMED_UNIT(*)
PLANE_ANGLE_UNIT()
SI_UNIT($,.RADIAN.)
);
#184=PLANE_ANGLE_MEASURE_WITH_UNIT(PLANE_ANGLE_MEASURE(0.01745329252),#183);
#185=SHAPE_DEFINITION_REPRESENTATION(#186,#187);
#186=PRODUCT_DEFINITION_SHAPE('',$,#189);
#187=SHAPE_REPRESENTATION('',(#101),#174);
#188=PRODUCT_DEFINITION_CONTEXT('part definition',#193,'design');
#189=PRODUCT_DEFINITION('NA02P125B NOZZLE, 2 X 125',
'NA02P125 NOZZLE, 2 X 125',#190,#188);
#190=PRODUCT_DEFINITION_FORMATION('',$,#195);
#191=PRODUCT_RELATED_PRODUCT_CATEGORY('NA02P125 NOZZLE, 2 X 125',
'NA02P125 NOZZLE, 2 X 125',(#195));
#192=APPLICATION_PROTOCOL_DEFINITION('international standard',
'automotive_design',2009,#193);
#193=APPLICATION_CONTEXT(
'Core Data for Automotive Mechanical Design Process');
#194=PRODUCT_CONTEXT('part definition',#193,'mechanical');
#195=PRODUCT('NA02P125B NOZZLE, 2 X 125','NA02P125 NOZZLE, 2 X 125',$,(#194));
#196=PRESENTATION_STYLE_ASSIGNMENT((#197));
#197=SURFACE_STYLE_USAGE(.BOTH.,#198);
#198=SURFACE_SIDE_STYLE('',(#199));
#199=SURFACE_STYLE_FILL_AREA(#200);
#200=FILL_AREA_STYLE('',(#201));
#201=FILL_AREA_STYLE_COLOUR('',#202);
#202=COLOUR_RGB('',0.749019607843137,0.749019607843137,0.749019607843137);
ENDSEC;
END-ISO-10303-21;
