ISO-10303-21;
HEADER;
/* Generated by software containing ST-Developer
 * from STEP Tools, Inc. (www.steptools.com) 
 */

FILE_DESCRIPTION(
/* description */ (''),
/* implementation_level */ '2;1');

FILE_NAME(
/* name */ 
'D:\\Exports\\Inventor Pro\\Finals for Review\\PA\\PAE00008_A.stp',
/* time_stamp */ '2018-03-19T09:07:43-04:00',
/* author */ ('James'),
/* organization */ (''),
/* preprocessor_version */ 'ST-DEVELOPER v16.5',
/* originating_system */ 'Autodesk Inventor 2017',
/* authorisation */ '');

FILE_SCHEMA (('AUTOMOTIVE_DESIGN { 1 0 10303 214 3 1 1 }'));
ENDSEC;

DATA;
#10=MECHANICAL_DESIGN_GEOMETRIC_PRESENTATION_REPRESENTATION('',(#13),#189);
#11=SHAPE_REPRESENTATION_RELATIONSHIP('SRR','None',#201,#12);
#12=ADVANCED_BREP_SHAPE_REPRESENTATION('',(#14),#188);
#13=STYLED_ITEM('',(#210),#14);
#14=MANIFOLD_SOLID_BREP('Solid1',#103);
#15=PLANE('',#125);
#16=PLANE('',#126);
#17=TOROIDAL_SURFACE('',#114,4.,1.935);
#18=TOROIDAL_SURFACE('',#121,4.,2.);
#19=FACE_BOUND('',#36,.T.);
#20=FACE_BOUND('',#38,.T.);
#21=FACE_BOUND('',#40,.T.);
#22=FACE_BOUND('',#42,.T.);
#23=FACE_BOUND('',#44,.T.);
#24=FACE_BOUND('',#46,.T.);
#25=FACE_BOUND('',#48,.T.);
#26=FACE_BOUND('',#50,.T.);
#27=FACE_OUTER_BOUND('',#35,.T.);
#28=FACE_OUTER_BOUND('',#37,.T.);
#29=FACE_OUTER_BOUND('',#39,.T.);
#30=FACE_OUTER_BOUND('',#41,.T.);
#31=FACE_OUTER_BOUND('',#43,.T.);
#32=FACE_OUTER_BOUND('',#45,.T.);
#33=FACE_OUTER_BOUND('',#47,.T.);
#34=FACE_OUTER_BOUND('',#49,.T.);
#35=EDGE_LOOP('',(#75));
#36=EDGE_LOOP('',(#76));
#37=EDGE_LOOP('',(#77));
#38=EDGE_LOOP('',(#78));
#39=EDGE_LOOP('',(#79));
#40=EDGE_LOOP('',(#80));
#41=EDGE_LOOP('',(#81));
#42=EDGE_LOOP('',(#82));
#43=EDGE_LOOP('',(#83));
#44=EDGE_LOOP('',(#84));
#45=EDGE_LOOP('',(#85));
#46=EDGE_LOOP('',(#86));
#47=EDGE_LOOP('',(#87));
#48=EDGE_LOOP('',(#88));
#49=EDGE_LOOP('',(#89));
#50=EDGE_LOOP('',(#90));
#51=CIRCLE('',#112,1.935);
#52=CIRCLE('',#113,1.935);
#53=CIRCLE('',#115,1.935);
#54=CIRCLE('',#117,1.935);
#55=CIRCLE('',#119,2.);
#56=CIRCLE('',#120,2.);
#57=CIRCLE('',#122,2.);
#58=CIRCLE('',#124,2.);
#59=VERTEX_POINT('',#163);
#60=VERTEX_POINT('',#165);
#61=VERTEX_POINT('',#168);
#62=VERTEX_POINT('',#171);
#63=VERTEX_POINT('',#174);
#64=VERTEX_POINT('',#176);
#65=VERTEX_POINT('',#179);
#66=VERTEX_POINT('',#182);
#67=EDGE_CURVE('',#59,#59,#51,.T.);
#68=EDGE_CURVE('',#60,#60,#52,.T.);
#69=EDGE_CURVE('',#61,#61,#53,.T.);
#70=EDGE_CURVE('',#62,#62,#54,.T.);
#71=EDGE_CURVE('',#63,#63,#55,.T.);
#72=EDGE_CURVE('',#64,#64,#56,.T.);
#73=EDGE_CURVE('',#65,#65,#57,.T.);
#74=EDGE_CURVE('',#66,#66,#58,.T.);
#75=ORIENTED_EDGE('',*,*,#67,.F.);
#76=ORIENTED_EDGE('',*,*,#68,.F.);
#77=ORIENTED_EDGE('',*,*,#68,.T.);
#78=ORIENTED_EDGE('',*,*,#69,.F.);
#79=ORIENTED_EDGE('',*,*,#69,.T.);
#80=ORIENTED_EDGE('',*,*,#70,.F.);
#81=ORIENTED_EDGE('',*,*,#71,.F.);
#82=ORIENTED_EDGE('',*,*,#72,.T.);
#83=ORIENTED_EDGE('',*,*,#72,.F.);
#84=ORIENTED_EDGE('',*,*,#73,.T.);
#85=ORIENTED_EDGE('',*,*,#73,.F.);
#86=ORIENTED_EDGE('',*,*,#74,.T.);
#87=ORIENTED_EDGE('',*,*,#71,.T.);
#88=ORIENTED_EDGE('',*,*,#67,.T.);
#89=ORIENTED_EDGE('',*,*,#74,.F.);
#90=ORIENTED_EDGE('',*,*,#70,.T.);
#91=CYLINDRICAL_SURFACE('',#111,1.935);
#92=CYLINDRICAL_SURFACE('',#116,1.935);
#93=CYLINDRICAL_SURFACE('',#118,2.);
#94=CYLINDRICAL_SURFACE('',#123,2.);
#95=ADVANCED_FACE('',(#27,#19),#91,.F.);
#96=ADVANCED_FACE('',(#28,#20),#17,.F.);
#97=ADVANCED_FACE('',(#29,#21),#92,.F.);
#98=ADVANCED_FACE('',(#30,#22),#93,.T.);
#99=ADVANCED_FACE('',(#31,#23),#18,.T.);
#100=ADVANCED_FACE('',(#32,#24),#94,.T.);
#101=ADVANCED_FACE('',(#33,#25),#15,.F.);
#102=ADVANCED_FACE('',(#34,#26),#16,.T.);
#103=CLOSED_SHELL('',(#95,#96,#97,#98,#99,#100,#101,#102));
#104=DATE_TIME_ROLE('creation_date');
#105=APPLIED_DATE_AND_TIME_ASSIGNMENT(#106,#104,(#203));
#106=DATE_AND_TIME(#107,#108);
#107=CALENDAR_DATE(2017,29,8);
#108=LOCAL_TIME(19,21,46.,#109);
#109=COORDINATED_UNIVERSAL_TIME_OFFSET(0,0,.BEHIND.);
#110=AXIS2_PLACEMENT_3D('placement',#161,#127,#128);
#111=AXIS2_PLACEMENT_3D('',#162,#129,#130);
#112=AXIS2_PLACEMENT_3D('',#164,#131,#132);
#113=AXIS2_PLACEMENT_3D('',#166,#133,#134);
#114=AXIS2_PLACEMENT_3D('',#167,#135,#136);
#115=AXIS2_PLACEMENT_3D('',#169,#137,#138);
#116=AXIS2_PLACEMENT_3D('',#170,#139,#140);
#117=AXIS2_PLACEMENT_3D('',#172,#141,#142);
#118=AXIS2_PLACEMENT_3D('',#173,#143,#144);
#119=AXIS2_PLACEMENT_3D('',#175,#145,#146);
#120=AXIS2_PLACEMENT_3D('',#177,#147,#148);
#121=AXIS2_PLACEMENT_3D('',#178,#149,#150);
#122=AXIS2_PLACEMENT_3D('',#180,#151,#152);
#123=AXIS2_PLACEMENT_3D('',#181,#153,#154);
#124=AXIS2_PLACEMENT_3D('',#183,#155,#156);
#125=AXIS2_PLACEMENT_3D('',#184,#157,#158);
#126=AXIS2_PLACEMENT_3D('',#185,#159,#160);
#127=DIRECTION('axis',(0.,0.,1.));
#128=DIRECTION('refdir',(1.,0.,0.));
#129=DIRECTION('center_axis',(-0.707106781186548,-0.707106781186547,0.));
#130=DIRECTION('ref_axis',(0.707106781186547,-0.707106781186548,0.));
#131=DIRECTION('center_axis',(0.707106781186547,0.707106781186548,0.));
#132=DIRECTION('ref_axis',(0.707106781186547,-0.707106781186548,0.));
#133=DIRECTION('center_axis',(-0.707106781186547,-0.707106781186548,0.));
#134=DIRECTION('ref_axis',(0.707106781186548,-0.707106781186547,0.));
#135=DIRECTION('center_axis',(0.,0.,-1.));
#136=DIRECTION('ref_axis',(-1.,0.,0.));
#137=DIRECTION('center_axis',(0.,-1.,0.));
#138=DIRECTION('ref_axis',(1.,0.,0.));
#139=DIRECTION('center_axis',(1.22464679914735E-16,-1.,0.));
#140=DIRECTION('ref_axis',(1.,1.22464679914735E-16,0.));
#141=DIRECTION('center_axis',(0.,-1.,0.));
#142=DIRECTION('ref_axis',(1.,1.22464679914735E-16,0.));
#143=DIRECTION('center_axis',(-0.707106781186548,-0.707106781186547,0.));
#144=DIRECTION('ref_axis',(0.707106781186547,-0.707106781186548,0.));
#145=DIRECTION('center_axis',(-0.707106781186547,-0.707106781186548,0.));
#146=DIRECTION('ref_axis',(0.707106781186548,-0.707106781186547,0.));
#147=DIRECTION('center_axis',(-0.707106781186547,-0.707106781186548,0.));
#148=DIRECTION('ref_axis',(0.707106781186548,-0.707106781186547,0.));
#149=DIRECTION('center_axis',(0.,0.,-1.));
#150=DIRECTION('ref_axis',(-1.,0.,0.));
#151=DIRECTION('center_axis',(0.,-1.,0.));
#152=DIRECTION('ref_axis',(1.,0.,0.));
#153=DIRECTION('center_axis',(1.22464679914735E-16,-1.,0.));
#154=DIRECTION('ref_axis',(1.,1.22464679914735E-16,0.));
#155=DIRECTION('center_axis',(0.,-1.,0.));
#156=DIRECTION('ref_axis',(1.,0.,0.));
#157=DIRECTION('center_axis',(0.707106781186547,0.707106781186548,0.));
#158=DIRECTION('ref_axis',(0.,0.,1.));
#159=DIRECTION('center_axis',(0.,1.,0.));
#160=DIRECTION('ref_axis',(0.,0.,1.));
#161=CARTESIAN_POINT('',(0.,0.,0.));
#162=CARTESIAN_POINT('Origin',(-1.17157287525381,-6.82842712474619,0.));
#163=CARTESIAN_POINT('',(-5.36825162159597,-8.28860262789641,2.36969155635013E-16));
#164=CARTESIAN_POINT('Origin',(-4.,-9.65685424949238,0.));
#165=CARTESIAN_POINT('',(-2.53982449684978,-5.46017550315022,2.36969155635013E-16));
#166=CARTESIAN_POINT('Origin',(-1.17157287525381,-6.82842712474619,0.));
#167=CARTESIAN_POINT('Origin',(-4.,-4.,0.));
#168=CARTESIAN_POINT('',(-1.935,-4.,2.36969155635013E-16));
#169=CARTESIAN_POINT('Origin',(4.89858719658941E-16,-4.,0.));
#170=CARTESIAN_POINT('Origin',(0.,0.,0.));
#171=CARTESIAN_POINT('',(-1.935,0.,2.36969155635013E-16));
#172=CARTESIAN_POINT('Origin',(3.05903034102492E-48,-2.49788783439824E-32,
0.));
#173=CARTESIAN_POINT('Origin',(-1.17157287525381,-6.82842712474619,0.));
#174=CARTESIAN_POINT('',(-5.41421356237309,-8.24264068711928,2.44929359829471E-16));
#175=CARTESIAN_POINT('Origin',(-4.,-9.65685424949238,0.));
#176=CARTESIAN_POINT('',(-2.5857864376269,-5.41421356237309,2.44929359829471E-16));
#177=CARTESIAN_POINT('Origin',(-1.17157287525381,-6.82842712474619,0.));
#178=CARTESIAN_POINT('Origin',(-4.,-4.,0.));
#179=CARTESIAN_POINT('',(-2.,-4.,2.44929359829471E-16));
#180=CARTESIAN_POINT('Origin',(4.89858719658941E-16,-4.,0.));
#181=CARTESIAN_POINT('Origin',(0.,0.,0.));
#182=CARTESIAN_POINT('',(-2.,0.,2.44929359829471E-16));
#183=CARTESIAN_POINT('Origin',(0.,0.,0.));
#184=CARTESIAN_POINT('Origin',(-4.,-9.65685424949238,4.58893101297934E-17));
#185=CARTESIAN_POINT('Origin',(2.03968020504963E-16,0.,4.58893101297934E-17));
#186=UNCERTAINTY_MEASURE_WITH_UNIT(LENGTH_MEASURE(0.000393700787401575),
#190,'DISTANCE_ACCURACY_VALUE',
'Maximum model space distance between geometric entities at asserted c
onnectivities');
#187=UNCERTAINTY_MEASURE_WITH_UNIT(LENGTH_MEASURE(1.E-6),#191,
'DISTANCE_ACCURACY_VALUE',
'Maximum model space distance between geometric entities at asserted c
onnectivities');
#188=(
GEOMETRIC_REPRESENTATION_CONTEXT(3)
GLOBAL_UNCERTAINTY_ASSIGNED_CONTEXT((#186))
GLOBAL_UNIT_ASSIGNED_CONTEXT((#190,#196,#193))
REPRESENTATION_CONTEXT('','3D')
);
#189=(
GEOMETRIC_REPRESENTATION_CONTEXT(3)
GLOBAL_UNCERTAINTY_ASSIGNED_CONTEXT((#187))
GLOBAL_UNIT_ASSIGNED_CONTEXT((#191,#196,#193))
REPRESENTATION_CONTEXT('','3D')
);
#190=(
CONVERSION_BASED_UNIT('__CONSTANT UNIT inch',#192)
LENGTH_UNIT()
NAMED_UNIT(#195)
);
#191=(
LENGTH_UNIT()
NAMED_UNIT(*)
SI_UNIT(.MILLI.,.METRE.)
);
#192=LENGTH_MEASURE_WITH_UNIT(LENGTH_MEASURE(25.4),#191);
#193=(
NAMED_UNIT(*)
SI_UNIT($,.STERADIAN.)
SOLID_ANGLE_UNIT()
);
#194=DIMENSIONAL_EXPONENTS(0.,0.,0.,0.,0.,0.,0.);
#195=DIMENSIONAL_EXPONENTS(1.,0.,0.,0.,0.,0.,0.);
#196=(
CONVERSION_BASED_UNIT('degree',#198)
NAMED_UNIT(#194)
PLANE_ANGLE_UNIT()
);
#197=(
NAMED_UNIT(*)
PLANE_ANGLE_UNIT()
SI_UNIT($,.RADIAN.)
);
#198=PLANE_ANGLE_MEASURE_WITH_UNIT(PLANE_ANGLE_MEASURE(0.01745329252),#197);
#199=SHAPE_DEFINITION_REPRESENTATION(#200,#201);
#200=PRODUCT_DEFINITION_SHAPE('',$,#203);
#201=SHAPE_REPRESENTATION('',(#110),#188);
#202=PRODUCT_DEFINITION_CONTEXT('part definition',#207,'design');
#203=PRODUCT_DEFINITION('PAE00008 ELBOW, 4IN, 45DEG',
'PAE00008 ELBOW, 4IN, 45',#204,#202);
#204=PRODUCT_DEFINITION_FORMATION('',$,#209);
#205=PRODUCT_RELATED_PRODUCT_CATEGORY('PAE00008 ELBOW, 4IN, 45',
'PAE00008 ELBOW, 4IN, 45',(#209));
#206=APPLICATION_PROTOCOL_DEFINITION('international standard',
'automotive_design',2009,#207);
#207=APPLICATION_CONTEXT(
'Core Data for Automotive Mechanical Design Process');
#208=PRODUCT_CONTEXT('part definition',#207,'mechanical');
#209=PRODUCT('PAE00008 ELBOW, 4IN, 45DEG','PAE00008 ELBOW, 4IN, 45',$,(#208));
#210=PRESENTATION_STYLE_ASSIGNMENT((#211));
#211=SURFACE_STYLE_USAGE(.BOTH.,#212);
#212=SURFACE_SIDE_STYLE('',(#213));
#213=SURFACE_STYLE_FILL_AREA(#214);
#214=FILL_AREA_STYLE('',(#215));
#215=FILL_AREA_STYLE_COLOUR('',#216);
#216=COLOUR_RGB('',0.749019607843137,0.749019607843137,0.749019607843137);
ENDSEC;
END-ISO-10303-21;
