ISO-10303-21;
HEADER;
/* Generated by software containing ST-Developer
 * from STEP Tools, Inc. (www.steptools.com) 
 */

FILE_DESCRIPTION(
/* description */ (''),
/* implementation_level */ '2;1');

FILE_NAME(
/* name */ 
'D:\\Exports\\Inventor Pro\\Finals for Review\\PA\\PAR00001_A.stp',
/* time_stamp */ '2018-03-19T13:40:17-04:00',
/* author */ ('James'),
/* organization */ (''),
/* preprocessor_version */ 'ST-DEVELOPER v16.5',
/* originating_system */ 'Autodesk Inventor 2017',
/* authorisation */ '');

FILE_SCHEMA (('AUTOMOTIVE_DESIGN { 1 0 10303 214 3 1 1 }'));
ENDSEC;

DATA;
#10=MECHANICAL_DESIGN_GEOMETRIC_PRESENTATION_REPRESENTATION('',(#13),#269);
#11=SHAPE_REPRESENTATION_RELATIONSHIP('SRR','None',#281,#12);
#12=ADVANCED_BREP_SHAPE_REPRESENTATION('',(#14),#268);
#13=STYLED_ITEM('',(#290),#14);
#14=MANIFOLD_SOLID_BREP('Solid1',#147);
#15=PLANE('',#177);
#16=PLANE('',#178);
#17=CYLINDRICAL_SURFACE('',#160,1.935);
#18=CYLINDRICAL_SURFACE('',#164,1.435);
#19=CYLINDRICAL_SURFACE('',#171,2.);
#20=CYLINDRICAL_SURFACE('',#175,1.5);
#21=CONICAL_SURFACE('',#158,1.68721482129121,15.);
#22=CONICAL_SURFACE('',#169,1.75,15.);
#23=FACE_BOUND('',#48,.T.);
#24=FACE_BOUND('',#50,.T.);
#25=FACE_BOUND('',#52,.T.);
#26=FACE_BOUND('',#54,.T.);
#27=FACE_BOUND('',#56,.T.);
#28=FACE_BOUND('',#58,.T.);
#29=FACE_BOUND('',#60,.T.);
#30=FACE_BOUND('',#62,.T.);
#31=FACE_BOUND('',#64,.T.);
#32=FACE_BOUND('',#66,.T.);
#33=FACE_BOUND('',#68,.T.);
#34=FACE_BOUND('',#70,.T.);
#35=FACE_OUTER_BOUND('',#47,.T.);
#36=FACE_OUTER_BOUND('',#49,.T.);
#37=FACE_OUTER_BOUND('',#51,.T.);
#38=FACE_OUTER_BOUND('',#53,.T.);
#39=FACE_OUTER_BOUND('',#55,.T.);
#40=FACE_OUTER_BOUND('',#57,.T.);
#41=FACE_OUTER_BOUND('',#59,.T.);
#42=FACE_OUTER_BOUND('',#61,.T.);
#43=FACE_OUTER_BOUND('',#63,.T.);
#44=FACE_OUTER_BOUND('',#65,.T.);
#45=FACE_OUTER_BOUND('',#67,.T.);
#46=FACE_OUTER_BOUND('',#69,.T.);
#47=EDGE_LOOP('',(#107));
#48=EDGE_LOOP('',(#108));
#49=EDGE_LOOP('',(#109));
#50=EDGE_LOOP('',(#110));
#51=EDGE_LOOP('',(#111));
#52=EDGE_LOOP('',(#112));
#53=EDGE_LOOP('',(#113));
#54=EDGE_LOOP('',(#114));
#55=EDGE_LOOP('',(#115));
#56=EDGE_LOOP('',(#116));
#57=EDGE_LOOP('',(#117));
#58=EDGE_LOOP('',(#118));
#59=EDGE_LOOP('',(#119));
#60=EDGE_LOOP('',(#120));
#61=EDGE_LOOP('',(#121));
#62=EDGE_LOOP('',(#122));
#63=EDGE_LOOP('',(#123));
#64=EDGE_LOOP('',(#124));
#65=EDGE_LOOP('',(#125));
#66=EDGE_LOOP('',(#126));
#67=EDGE_LOOP('',(#127));
#68=EDGE_LOOP('',(#128));
#69=EDGE_LOOP('',(#129));
#70=EDGE_LOOP('',(#130));
#71=CIRCLE('',#156,1.92017773443574);
#72=CIRCLE('',#157,1.935);
#73=CIRCLE('',#159,1.45425190814668);
#74=CIRCLE('',#161,1.935);
#75=CIRCLE('',#163,1.435);
#76=CIRCLE('',#165,1.435);
#77=CIRCLE('',#167,1.98296291314453);
#78=CIRCLE('',#168,2.);
#79=CIRCLE('',#170,1.51703708685547);
#80=CIRCLE('',#172,2.);
#81=CIRCLE('',#174,1.5);
#82=CIRCLE('',#176,1.5);
#83=VERTEX_POINT('',#231);
#84=VERTEX_POINT('',#233);
#85=VERTEX_POINT('',#236);
#86=VERTEX_POINT('',#239);
#87=VERTEX_POINT('',#242);
#88=VERTEX_POINT('',#245);
#89=VERTEX_POINT('',#248);
#90=VERTEX_POINT('',#250);
#91=VERTEX_POINT('',#253);
#92=VERTEX_POINT('',#256);
#93=VERTEX_POINT('',#259);
#94=VERTEX_POINT('',#262);
#95=EDGE_CURVE('',#83,#83,#71,.T.);
#96=EDGE_CURVE('',#84,#84,#72,.T.);
#97=EDGE_CURVE('',#85,#85,#73,.T.);
#98=EDGE_CURVE('',#86,#86,#74,.T.);
#99=EDGE_CURVE('',#87,#87,#75,.T.);
#100=EDGE_CURVE('',#88,#88,#76,.T.);
#101=EDGE_CURVE('',#89,#89,#77,.T.);
#102=EDGE_CURVE('',#90,#90,#78,.T.);
#103=EDGE_CURVE('',#91,#91,#79,.T.);
#104=EDGE_CURVE('',#92,#92,#80,.T.);
#105=EDGE_CURVE('',#93,#93,#81,.T.);
#106=EDGE_CURVE('',#94,#94,#82,.T.);
#107=ORIENTED_EDGE('',*,*,#95,.F.);
#108=ORIENTED_EDGE('',*,*,#96,.F.);
#109=ORIENTED_EDGE('',*,*,#97,.T.);
#110=ORIENTED_EDGE('',*,*,#95,.T.);
#111=ORIENTED_EDGE('',*,*,#98,.F.);
#112=ORIENTED_EDGE('',*,*,#96,.T.);
#113=ORIENTED_EDGE('',*,*,#99,.F.);
#114=ORIENTED_EDGE('',*,*,#97,.F.);
#115=ORIENTED_EDGE('',*,*,#100,.F.);
#116=ORIENTED_EDGE('',*,*,#99,.T.);
#117=ORIENTED_EDGE('',*,*,#101,.T.);
#118=ORIENTED_EDGE('',*,*,#102,.T.);
#119=ORIENTED_EDGE('',*,*,#103,.F.);
#120=ORIENTED_EDGE('',*,*,#101,.F.);
#121=ORIENTED_EDGE('',*,*,#104,.F.);
#122=ORIENTED_EDGE('',*,*,#102,.F.);
#123=ORIENTED_EDGE('',*,*,#105,.T.);
#124=ORIENTED_EDGE('',*,*,#103,.T.);
#125=ORIENTED_EDGE('',*,*,#106,.T.);
#126=ORIENTED_EDGE('',*,*,#105,.F.);
#127=ORIENTED_EDGE('',*,*,#104,.T.);
#128=ORIENTED_EDGE('',*,*,#98,.T.);
#129=ORIENTED_EDGE('',*,*,#106,.F.);
#130=ORIENTED_EDGE('',*,*,#100,.T.);
#131=TOROIDAL_SURFACE('',#155,1.5,0.435);
#132=TOROIDAL_SURFACE('',#162,2.,0.565);
#133=TOROIDAL_SURFACE('',#166,1.5,0.5);
#134=TOROIDAL_SURFACE('',#173,2.,0.5);
#135=ADVANCED_FACE('',(#35,#23),#131,.F.);
#136=ADVANCED_FACE('',(#36,#24),#21,.F.);
#137=ADVANCED_FACE('',(#37,#25),#17,.F.);
#138=ADVANCED_FACE('',(#38,#26),#132,.T.);
#139=ADVANCED_FACE('',(#39,#27),#18,.F.);
#140=ADVANCED_FACE('',(#40,#28),#133,.T.);
#141=ADVANCED_FACE('',(#41,#29),#22,.T.);
#142=ADVANCED_FACE('',(#42,#30),#19,.T.);
#143=ADVANCED_FACE('',(#43,#31),#134,.F.);
#144=ADVANCED_FACE('',(#44,#32),#20,.T.);
#145=ADVANCED_FACE('',(#45,#33),#15,.T.);
#146=ADVANCED_FACE('',(#46,#34),#16,.T.);
#147=CLOSED_SHELL('',(#135,#136,#137,#138,#139,#140,#141,#142,#143,#144,
#145,#146));
#148=DATE_TIME_ROLE('creation_date');
#149=APPLIED_DATE_AND_TIME_ASSIGNMENT(#150,#148,(#283));
#150=DATE_AND_TIME(#151,#152);
#151=CALENDAR_DATE(2018,19,3);
#152=LOCAL_TIME(17,27,53.,#153);
#153=COORDINATED_UNIVERSAL_TIME_OFFSET(0,0,.BEHIND.);
#154=AXIS2_PLACEMENT_3D('placement',#229,#179,#180);
#155=AXIS2_PLACEMENT_3D('',#230,#181,#182);
#156=AXIS2_PLACEMENT_3D('',#232,#183,#184);
#157=AXIS2_PLACEMENT_3D('',#234,#185,#186);
#158=AXIS2_PLACEMENT_3D('',#235,#187,#188);
#159=AXIS2_PLACEMENT_3D('',#237,#189,#190);
#160=AXIS2_PLACEMENT_3D('',#238,#191,#192);
#161=AXIS2_PLACEMENT_3D('',#240,#193,#194);
#162=AXIS2_PLACEMENT_3D('',#241,#195,#196);
#163=AXIS2_PLACEMENT_3D('',#243,#197,#198);
#164=AXIS2_PLACEMENT_3D('',#244,#199,#200);
#165=AXIS2_PLACEMENT_3D('',#246,#201,#202);
#166=AXIS2_PLACEMENT_3D('',#247,#203,#204);
#167=AXIS2_PLACEMENT_3D('',#249,#205,#206);
#168=AXIS2_PLACEMENT_3D('',#251,#207,#208);
#169=AXIS2_PLACEMENT_3D('',#252,#209,#210);
#170=AXIS2_PLACEMENT_3D('',#254,#211,#212);
#171=AXIS2_PLACEMENT_3D('',#255,#213,#214);
#172=AXIS2_PLACEMENT_3D('',#257,#215,#216);
#173=AXIS2_PLACEMENT_3D('',#258,#217,#218);
#174=AXIS2_PLACEMENT_3D('',#260,#219,#220);
#175=AXIS2_PLACEMENT_3D('',#261,#221,#222);
#176=AXIS2_PLACEMENT_3D('',#263,#223,#224);
#177=AXIS2_PLACEMENT_3D('',#264,#225,#226);
#178=AXIS2_PLACEMENT_3D('',#265,#227,#228);
#179=DIRECTION('axis',(0.,0.,1.));
#180=DIRECTION('refdir',(1.,0.,0.));
#181=DIRECTION('center_axis',(1.,2.98052360089877E-16,0.));
#182=DIRECTION('ref_axis',(0.,0.,-1.));
#183=DIRECTION('center_axis',(1.,3.52680870500515E-16,-4.17226847071288E-32));
#184=DIRECTION('ref_axis',(3.52680870500515E-16,-1.,3.06161699786838E-17));
#185=DIRECTION('center_axis',(-1.,-2.98052360089877E-16,0.));
#186=DIRECTION('ref_axis',(3.00503279303069E-16,-1.,1.83697019872103E-16));
#187=DIRECTION('center_axis',(1.,2.98052360089877E-16,0.));
#188=DIRECTION('ref_axis',(-3.49676543189026E-16,1.,0.));
#189=DIRECTION('center_axis',(-1.,-2.30499666895975E-16,1.00277794488676E-32));
#190=DIRECTION('ref_axis',(2.30499666895975E-16,-1.,3.06161699786838E-17));
#191=DIRECTION('center_axis',(1.,2.98052360089877E-16,0.));
#192=DIRECTION('ref_axis',(-3.49676543189026E-16,1.,0.));
#193=DIRECTION('center_axis',(-1.,-2.98052360089877E-16,0.));
#194=DIRECTION('ref_axis',(-3.49676543189026E-16,1.,0.));
#195=DIRECTION('center_axis',(1.,2.98052360089877E-16,0.));
#196=DIRECTION('ref_axis',(0.,0.,-1.));
#197=DIRECTION('center_axis',(1.,2.98052360089877E-16,0.));
#198=DIRECTION('ref_axis',(2.98682047307293E-16,-1.,1.83697019872103E-16));
#199=DIRECTION('center_axis',(1.,2.98052360089877E-16,0.));
#200=DIRECTION('ref_axis',(-3.49676543189026E-16,1.,0.));
#201=DIRECTION('center_axis',(1.,2.98052360089877E-16,0.));
#202=DIRECTION('ref_axis',(-3.49676543189026E-16,1.,0.));
#203=DIRECTION('center_axis',(1.,2.98052360089877E-16,0.));
#204=DIRECTION('ref_axis',(0.,0.,-1.));
#205=DIRECTION('center_axis',(1.,3.52680870500515E-16,-4.17226847071288E-32));
#206=DIRECTION('ref_axis',(3.52680870500515E-16,-1.,3.06161699786838E-17));
#207=DIRECTION('center_axis',(-1.,-2.98052360089877E-16,0.));
#208=DIRECTION('ref_axis',(3.00503279303069E-16,-1.,1.83697019872103E-16));
#209=DIRECTION('center_axis',(1.,2.98052360089877E-16,0.));
#210=DIRECTION('ref_axis',(-3.49676543189026E-16,1.,0.));
#211=DIRECTION('center_axis',(-1.,-2.30499666895975E-16,1.00277794488676E-32));
#212=DIRECTION('ref_axis',(2.30499666895975E-16,-1.,3.06161699786838E-17));
#213=DIRECTION('center_axis',(1.,2.98052360089877E-16,0.));
#214=DIRECTION('ref_axis',(-3.49676543189026E-16,1.,0.));
#215=DIRECTION('center_axis',(1.,2.98052360089877E-16,0.));
#216=DIRECTION('ref_axis',(0.,0.,-1.));
#217=DIRECTION('center_axis',(1.,2.98052360089877E-16,0.));
#218=DIRECTION('ref_axis',(0.,0.,-1.));
#219=DIRECTION('center_axis',(1.,2.98052360089877E-16,0.));
#220=DIRECTION('ref_axis',(2.98682047307293E-16,-1.,1.83697019872103E-16));
#221=DIRECTION('center_axis',(1.,2.98052360089877E-16,0.));
#222=DIRECTION('ref_axis',(-3.49676543189026E-16,1.,0.));
#223=DIRECTION('center_axis',(1.,2.98052360089877E-16,0.));
#224=DIRECTION('ref_axis',(0.,0.,-1.));
#225=DIRECTION('center_axis',(1.,2.98052360089877E-16,0.));
#226=DIRECTION('ref_axis',(0.,0.,-1.));
#227=DIRECTION('center_axis',(-1.,-2.98052360089877E-16,0.));
#228=DIRECTION('ref_axis',(0.,0.,1.));
#229=CARTESIAN_POINT('',(0.,0.,0.));
#230=CARTESIAN_POINT('Origin',(3.93185165257814,1.1718976645742E-15,0.));
#231=CARTESIAN_POINT('',(3.81926536795854,1.92017773443575,-1.17576975813537E-16));
#232=CARTESIAN_POINT('Origin',(3.81926536795854,1.05404383533696E-15,-3.03553648051296E-16));
#233=CARTESIAN_POINT('',(3.93185165257813,1.935,-5.92422889087532E-16));
#234=CARTESIAN_POINT('Origin',(3.93185165257814,1.1718976645742E-15,0.));
#235=CARTESIAN_POINT('Origin',(2.94983593982388,8.7920556374245E-16,0.));
#236=CARTESIAN_POINT('',(2.08040651168923,1.45425190814668,-4.45236236116439E-16));
#237=CARTESIAN_POINT('Origin',(2.08040651168923,4.42109884756168E-16,-2.32229326575671E-16));
#238=CARTESIAN_POINT('Origin',(4.86602540378444,1.45033035585525E-15,0.));
#239=CARTESIAN_POINT('',(5.86602540378444,-1.935,2.36969155635013E-16));
#240=CARTESIAN_POINT('Origin',(5.86602540378444,1.74838271594513E-15,0.));
#241=CARTESIAN_POINT('Origin',(1.9341737512063,5.7648505137093E-16,0.));
#242=CARTESIAN_POINT('',(1.9341737512063,1.435,-8.78684078388226E-17));
#243=CARTESIAN_POINT('Origin',(1.9341737512063,5.7648505137093E-16,0.));
#244=CARTESIAN_POINT('Origin',(1.,2.98052360089877E-16,0.));
#245=CARTESIAN_POINT('',(1.02630065425979E-15,-1.435,-1.75736815677645E-16));
#246=CARTESIAN_POINT('Origin',(5.24514814783538E-16,1.16465684825937E-31,
0.));
#247=CARTESIAN_POINT('Origin',(3.93185165257814,1.1718976645742E-15,0.));
#248=CARTESIAN_POINT('',(3.80244213002687,1.98296291314453,-1.21421459220518E-16));
#249=CARTESIAN_POINT('Origin',(3.80244213002687,1.04902962956708E-15,-3.03553648051296E-16));
#250=CARTESIAN_POINT('',(3.93185165257813,2.,-6.12323399573677E-16));
#251=CARTESIAN_POINT('Origin',(3.93185165257814,1.1718976645742E-15,0.));
#252=CARTESIAN_POINT('Origin',(2.93301270189222,8.74191357972564E-16,0.));
#253=CARTESIAN_POINT('',(2.06358327375756,1.51703708685547,-4.64458653151343E-16));
#254=CARTESIAN_POINT('Origin',(2.06358327375756,4.37095678986282E-16,-2.32229326575671E-16));
#255=CARTESIAN_POINT('Origin',(4.86602540378444,1.45033035585525E-15,0.));
#256=CARTESIAN_POINT('',(5.86602540378444,2.,0.));
#257=CARTESIAN_POINT('Origin',(5.86602540378444,1.74838271594513E-15,0.));
#258=CARTESIAN_POINT('Origin',(1.9341737512063,5.7648505137093E-16,0.));
#259=CARTESIAN_POINT('',(1.9341737512063,1.5,-9.18485099360515E-17));
#260=CARTESIAN_POINT('Origin',(1.9341737512063,5.7648505137093E-16,0.));
#261=CARTESIAN_POINT('Origin',(1.,2.98052360089877E-16,0.));
#262=CARTESIAN_POINT('',(0.,1.5,0.));
#263=CARTESIAN_POINT('Origin',(5.24514814783538E-16,1.55287579767916E-31,
0.));
#264=CARTESIAN_POINT('Origin',(5.86602540378444,1.74838271594513E-15,0.));
#265=CARTESIAN_POINT('Origin',(0.,1.5,0.));
#266=UNCERTAINTY_MEASURE_WITH_UNIT(LENGTH_MEASURE(0.000393700787401575),
#270,'DISTANCE_ACCURACY_VALUE',
'Maximum model space distance between geometric entities at asserted c
onnectivities');
#267=UNCERTAINTY_MEASURE_WITH_UNIT(LENGTH_MEASURE(1.E-6),#271,
'DISTANCE_ACCURACY_VALUE',
'Maximum model space distance between geometric entities at asserted c
onnectivities');
#268=(
GEOMETRIC_REPRESENTATION_CONTEXT(3)
GLOBAL_UNCERTAINTY_ASSIGNED_CONTEXT((#266))
GLOBAL_UNIT_ASSIGNED_CONTEXT((#270,#276,#273))
REPRESENTATION_CONTEXT('','3D')
);
#269=(
GEOMETRIC_REPRESENTATION_CONTEXT(3)
GLOBAL_UNCERTAINTY_ASSIGNED_CONTEXT((#267))
GLOBAL_UNIT_ASSIGNED_CONTEXT((#271,#276,#273))
REPRESENTATION_CONTEXT('','3D')
);
#270=(
CONVERSION_BASED_UNIT('__CONSTANT UNIT inch',#272)
LENGTH_UNIT()
NAMED_UNIT(#275)
);
#271=(
LENGTH_UNIT()
NAMED_UNIT(*)
SI_UNIT(.MILLI.,.METRE.)
);
#272=LENGTH_MEASURE_WITH_UNIT(LENGTH_MEASURE(25.4),#271);
#273=(
NAMED_UNIT(*)
SI_UNIT($,.STERADIAN.)
SOLID_ANGLE_UNIT()
);
#274=DIMENSIONAL_EXPONENTS(0.,0.,0.,0.,0.,0.,0.);
#275=DIMENSIONAL_EXPONENTS(1.,0.,0.,0.,0.,0.,0.);
#276=(
CONVERSION_BASED_UNIT('degree',#278)
NAMED_UNIT(#274)
PLANE_ANGLE_UNIT()
);
#277=(
NAMED_UNIT(*)
PLANE_ANGLE_UNIT()
SI_UNIT($,.RADIAN.)
);
#278=PLANE_ANGLE_MEASURE_WITH_UNIT(PLANE_ANGLE_MEASURE(0.01745329252),#277);
#279=SHAPE_DEFINITION_REPRESENTATION(#280,#281);
#280=PRODUCT_DEFINITION_SHAPE('',$,#283);
#281=SHAPE_REPRESENTATION('',(#154),#268);
#282=PRODUCT_DEFINITION_CONTEXT('part definition',#287,'design');
#283=PRODUCT_DEFINITION('PAR00001 REDUCER, 4IN X 3IN',
'PAR00001 REDUCER, 4IN X 3IN',#284,#282);
#284=PRODUCT_DEFINITION_FORMATION('',$,#289);
#285=PRODUCT_RELATED_PRODUCT_CATEGORY('PAR00001 REDUCER, 4IN X 3IN',
'PAR00001 REDUCER, 4IN X 3IN',(#289));
#286=APPLICATION_PROTOCOL_DEFINITION('international standard',
'automotive_design',2009,#287);
#287=APPLICATION_CONTEXT(
'Core Data for Automotive Mechanical Design Process');
#288=PRODUCT_CONTEXT('part definition',#287,'mechanical');
#289=PRODUCT('PAR00001 REDUCER, 4IN X 3IN',
'PAR00001 REDUCER, 4IN X 3IN',$,(#288));
#290=PRESENTATION_STYLE_ASSIGNMENT((#291));
#291=SURFACE_STYLE_USAGE(.BOTH.,#292);
#292=SURFACE_SIDE_STYLE('',(#293));
#293=SURFACE_STYLE_FILL_AREA(#294);
#294=FILL_AREA_STYLE('',(#295));
#295=FILL_AREA_STYLE_COLOUR('',#296);
#296=COLOUR_RGB('',0.745098039215686,0.737254901960784,0.729411764705882);
ENDSEC;
END-ISO-10303-21;
