ISO-10303-21;
HEADER;
/* Generated by software containing ST-Developer
 * from STEP Tools, Inc. (www.steptools.com) 
 */

FILE_DESCRIPTION(
/* description */ (''),
/* implementation_level */ '2;1');

FILE_NAME(
/* name */ 
'D:\\Exports\\Inventor Pro\\Finals for Review\\PA\\PAR00003_A.stp',
/* time_stamp */ '2018-03-19T13:39:56-04:00',
/* author */ ('James'),
/* organization */ (''),
/* preprocessor_version */ 'ST-DEVELOPER v16.5',
/* originating_system */ 'Autodesk Inventor 2017',
/* authorisation */ '');

FILE_SCHEMA (('AUTOMOTIVE_DESIGN { 1 0 10303 214 3 1 1 }'));
ENDSEC;

DATA;
#10=MECHANICAL_DESIGN_GEOMETRIC_PRESENTATION_REPRESENTATION('',(#141,#134,
#138,#137,#143,#135,#145,#142,#144,#136,#146,#140,#139),#281);
#11=SHAPE_REPRESENTATION_RELATIONSHIP('SRR','None',#293,#12);
#12=ADVANCED_BREP_SHAPE_REPRESENTATION('',(#13),#280);
#13=MANIFOLD_SOLID_BREP('Solid1',#159);
#14=PLANE('',#189);
#15=PLANE('',#190);
#16=CYLINDRICAL_SURFACE('',#172,2.935);
#17=CYLINDRICAL_SURFACE('',#176,1.935);
#18=CYLINDRICAL_SURFACE('',#183,3.);
#19=CYLINDRICAL_SURFACE('',#187,2.);
#20=CONICAL_SURFACE('',#170,2.43818132644082,18.);
#21=CONICAL_SURFACE('',#181,2.5,18.);
#22=FACE_BOUND('',#47,.T.);
#23=FACE_BOUND('',#49,.T.);
#24=FACE_BOUND('',#51,.T.);
#25=FACE_BOUND('',#53,.T.);
#26=FACE_BOUND('',#55,.T.);
#27=FACE_BOUND('',#57,.T.);
#28=FACE_BOUND('',#59,.T.);
#29=FACE_BOUND('',#61,.T.);
#30=FACE_BOUND('',#63,.T.);
#31=FACE_BOUND('',#65,.T.);
#32=FACE_BOUND('',#67,.T.);
#33=FACE_BOUND('',#69,.T.);
#34=FACE_OUTER_BOUND('',#46,.T.);
#35=FACE_OUTER_BOUND('',#48,.T.);
#36=FACE_OUTER_BOUND('',#50,.T.);
#37=FACE_OUTER_BOUND('',#52,.T.);
#38=FACE_OUTER_BOUND('',#54,.T.);
#39=FACE_OUTER_BOUND('',#56,.T.);
#40=FACE_OUTER_BOUND('',#58,.T.);
#41=FACE_OUTER_BOUND('',#60,.T.);
#42=FACE_OUTER_BOUND('',#62,.T.);
#43=FACE_OUTER_BOUND('',#64,.T.);
#44=FACE_OUTER_BOUND('',#66,.T.);
#45=FACE_OUTER_BOUND('',#68,.T.);
#46=EDGE_LOOP('',(#106));
#47=EDGE_LOOP('',(#107));
#48=EDGE_LOOP('',(#108));
#49=EDGE_LOOP('',(#109));
#50=EDGE_LOOP('',(#110));
#51=EDGE_LOOP('',(#111));
#52=EDGE_LOOP('',(#112));
#53=EDGE_LOOP('',(#113));
#54=EDGE_LOOP('',(#114));
#55=EDGE_LOOP('',(#115));
#56=EDGE_LOOP('',(#116));
#57=EDGE_LOOP('',(#117));
#58=EDGE_LOOP('',(#118));
#59=EDGE_LOOP('',(#119));
#60=EDGE_LOOP('',(#120));
#61=EDGE_LOOP('',(#121));
#62=EDGE_LOOP('',(#122));
#63=EDGE_LOOP('',(#123));
#64=EDGE_LOOP('',(#124));
#65=EDGE_LOOP('',(#125));
#66=EDGE_LOOP('',(#126));
#67=EDGE_LOOP('',(#127));
#68=EDGE_LOOP('',(#128));
#69=EDGE_LOOP('',(#129));
#70=CIRCLE('',#168,2.91370958458839);
#71=CIRCLE('',#169,2.935);
#72=CIRCLE('',#171,1.96265306829324);
#73=CIRCLE('',#173,2.935);
#74=CIRCLE('',#175,1.935);
#75=CIRCLE('',#177,1.935);
#76=CIRCLE('',#179,2.97552825814758);
#77=CIRCLE('',#180,3.);
#78=CIRCLE('',#182,2.02447174185242);
#79=CIRCLE('',#184,3.);
#80=CIRCLE('',#186,2.);
#81=CIRCLE('',#188,2.);
#82=VERTEX_POINT('',#243);
#83=VERTEX_POINT('',#245);
#84=VERTEX_POINT('',#248);
#85=VERTEX_POINT('',#251);
#86=VERTEX_POINT('',#254);
#87=VERTEX_POINT('',#257);
#88=VERTEX_POINT('',#260);
#89=VERTEX_POINT('',#262);
#90=VERTEX_POINT('',#265);
#91=VERTEX_POINT('',#268);
#92=VERTEX_POINT('',#271);
#93=VERTEX_POINT('',#274);
#94=EDGE_CURVE('',#82,#82,#70,.T.);
#95=EDGE_CURVE('',#83,#83,#71,.T.);
#96=EDGE_CURVE('',#84,#84,#72,.T.);
#97=EDGE_CURVE('',#85,#85,#73,.T.);
#98=EDGE_CURVE('',#86,#86,#74,.T.);
#99=EDGE_CURVE('',#87,#87,#75,.T.);
#100=EDGE_CURVE('',#88,#88,#76,.T.);
#101=EDGE_CURVE('',#89,#89,#77,.T.);
#102=EDGE_CURVE('',#90,#90,#78,.T.);
#103=EDGE_CURVE('',#91,#91,#79,.T.);
#104=EDGE_CURVE('',#92,#92,#80,.T.);
#105=EDGE_CURVE('',#93,#93,#81,.T.);
#106=ORIENTED_EDGE('',*,*,#94,.F.);
#107=ORIENTED_EDGE('',*,*,#95,.F.);
#108=ORIENTED_EDGE('',*,*,#96,.T.);
#109=ORIENTED_EDGE('',*,*,#94,.T.);
#110=ORIENTED_EDGE('',*,*,#97,.F.);
#111=ORIENTED_EDGE('',*,*,#95,.T.);
#112=ORIENTED_EDGE('',*,*,#98,.F.);
#113=ORIENTED_EDGE('',*,*,#96,.F.);
#114=ORIENTED_EDGE('',*,*,#99,.F.);
#115=ORIENTED_EDGE('',*,*,#98,.T.);
#116=ORIENTED_EDGE('',*,*,#100,.T.);
#117=ORIENTED_EDGE('',*,*,#101,.T.);
#118=ORIENTED_EDGE('',*,*,#102,.F.);
#119=ORIENTED_EDGE('',*,*,#100,.F.);
#120=ORIENTED_EDGE('',*,*,#103,.F.);
#121=ORIENTED_EDGE('',*,*,#101,.F.);
#122=ORIENTED_EDGE('',*,*,#104,.T.);
#123=ORIENTED_EDGE('',*,*,#102,.T.);
#124=ORIENTED_EDGE('',*,*,#105,.T.);
#125=ORIENTED_EDGE('',*,*,#104,.F.);
#126=ORIENTED_EDGE('',*,*,#103,.T.);
#127=ORIENTED_EDGE('',*,*,#97,.T.);
#128=ORIENTED_EDGE('',*,*,#105,.F.);
#129=ORIENTED_EDGE('',*,*,#99,.T.);
#130=TOROIDAL_SURFACE('',#167,2.5,0.435);
#131=TOROIDAL_SURFACE('',#174,2.5,0.565);
#132=TOROIDAL_SURFACE('',#178,2.5,0.5);
#133=TOROIDAL_SURFACE('',#185,2.5,0.5);
#134=STYLED_ITEM('',(#303),#147);
#135=STYLED_ITEM('',(#303),#148);
#136=STYLED_ITEM('',(#303),#149);
#137=STYLED_ITEM('',(#303),#150);
#138=STYLED_ITEM('',(#303),#151);
#139=STYLED_ITEM('',(#303),#152);
#140=STYLED_ITEM('',(#303),#153);
#141=STYLED_ITEM('',(#303),#154);
#142=STYLED_ITEM('',(#303),#155);
#143=STYLED_ITEM('',(#303),#156);
#144=STYLED_ITEM('',(#303),#157);
#145=STYLED_ITEM('',(#303),#158);
#146=STYLED_ITEM('',(#302),#13);
#147=ADVANCED_FACE('',(#34,#22),#130,.F.);
#148=ADVANCED_FACE('',(#35,#23),#20,.F.);
#149=ADVANCED_FACE('',(#36,#24),#16,.F.);
#150=ADVANCED_FACE('',(#37,#25),#131,.T.);
#151=ADVANCED_FACE('',(#38,#26),#17,.F.);
#152=ADVANCED_FACE('',(#39,#27),#132,.T.);
#153=ADVANCED_FACE('',(#40,#28),#21,.T.);
#154=ADVANCED_FACE('',(#41,#29),#18,.T.);
#155=ADVANCED_FACE('',(#42,#30),#133,.F.);
#156=ADVANCED_FACE('',(#43,#31),#19,.T.);
#157=ADVANCED_FACE('',(#44,#32),#14,.T.);
#158=ADVANCED_FACE('',(#45,#33),#15,.T.);
#159=CLOSED_SHELL('',(#147,#148,#149,#150,#151,#152,#153,#154,#155,#156,
#157,#158));
#160=DATE_TIME_ROLE('creation_date');
#161=APPLIED_DATE_AND_TIME_ASSIGNMENT(#162,#160,(#295));
#162=DATE_AND_TIME(#163,#164);
#163=CALENDAR_DATE(2018,19,3);
#164=LOCAL_TIME(17,38,33.,#165);
#165=COORDINATED_UNIVERSAL_TIME_OFFSET(0,0,.BEHIND.);
#166=AXIS2_PLACEMENT_3D('placement',#241,#191,#192);
#167=AXIS2_PLACEMENT_3D('',#242,#193,#194);
#168=AXIS2_PLACEMENT_3D('',#244,#195,#196);
#169=AXIS2_PLACEMENT_3D('',#246,#197,#198);
#170=AXIS2_PLACEMENT_3D('',#247,#199,#200);
#171=AXIS2_PLACEMENT_3D('',#249,#201,#202);
#172=AXIS2_PLACEMENT_3D('',#250,#203,#204);
#173=AXIS2_PLACEMENT_3D('',#252,#205,#206);
#174=AXIS2_PLACEMENT_3D('',#253,#207,#208);
#175=AXIS2_PLACEMENT_3D('',#255,#209,#210);
#176=AXIS2_PLACEMENT_3D('',#256,#211,#212);
#177=AXIS2_PLACEMENT_3D('',#258,#213,#214);
#178=AXIS2_PLACEMENT_3D('',#259,#215,#216);
#179=AXIS2_PLACEMENT_3D('',#261,#217,#218);
#180=AXIS2_PLACEMENT_3D('',#263,#219,#220);
#181=AXIS2_PLACEMENT_3D('',#264,#221,#222);
#182=AXIS2_PLACEMENT_3D('',#266,#223,#224);
#183=AXIS2_PLACEMENT_3D('',#267,#225,#226);
#184=AXIS2_PLACEMENT_3D('',#269,#227,#228);
#185=AXIS2_PLACEMENT_3D('',#270,#229,#230);
#186=AXIS2_PLACEMENT_3D('',#272,#231,#232);
#187=AXIS2_PLACEMENT_3D('',#273,#233,#234);
#188=AXIS2_PLACEMENT_3D('',#275,#235,#236);
#189=AXIS2_PLACEMENT_3D('',#276,#237,#238);
#190=AXIS2_PLACEMENT_3D('',#277,#239,#240);
#191=DIRECTION('axis',(0.,0.,1.));
#192=DIRECTION('refdir',(1.,0.,0.));
#193=DIRECTION('center_axis',(1.,3.80802212860167E-17,3.58048816991073E-17));
#194=DIRECTION('ref_axis',(0.,-0.441888375452712,0.897070043887189));
#195=DIRECTION('center_axis',(1.,4.39304794710784E-17,3.00689542865928E-16));
#196=DIRECTION('ref_axis',(-1.72279930759749E-16,0.897070043887189,0.441888375452712));
#197=DIRECTION('center_axis',(-1.,-3.80802212860167E-17,-3.58048816991073E-17));
#198=DIRECTION('ref_axis',(-4.84361550469694E-17,0.897070043887189,0.441888375452712));
#199=DIRECTION('center_axis',(1.,3.80802212860167E-17,3.58048816991073E-17));
#200=DIRECTION('ref_axis',(1.72279930759749E-16,-0.897070043887189,-0.441888375452712));
#201=DIRECTION('center_axis',(-1.,-6.91685068348914E-17,1.41424624425604E-16));
#202=DIRECTION('ref_axis',(4.44902074452771E-19,0.897070043887189,0.441888375452712));
#203=DIRECTION('center_axis',(1.,3.80802212860167E-17,3.58048816991073E-17));
#204=DIRECTION('ref_axis',(1.72279930759749E-16,-0.897070043887189,-0.441888375452712));
#205=DIRECTION('center_axis',(-1.,-3.80802212860167E-17,-3.58048816991073E-17));
#206=DIRECTION('ref_axis',(1.72279930759749E-16,-0.897070043887189,-0.441888375452712));
#207=DIRECTION('center_axis',(1.,3.80802212860167E-17,3.58048816991073E-17));
#208=DIRECTION('ref_axis',(0.,-0.441888375452712,0.897070043887189));
#209=DIRECTION('center_axis',(1.,3.80802212860167E-17,3.58048816991073E-17));
#210=DIRECTION('ref_axis',(-5.20786190385217E-17,0.897070043887189,0.441888375452712));
#211=DIRECTION('center_axis',(1.,3.80802212860167E-17,3.58048816991073E-17));
#212=DIRECTION('ref_axis',(1.72279930759749E-16,-0.897070043887189,-0.441888375452712));
#213=DIRECTION('center_axis',(1.,3.80802212860167E-17,3.58048816991073E-17));
#214=DIRECTION('ref_axis',(1.72279930759749E-16,-0.897070043887189,-0.441888375452712));
#215=DIRECTION('center_axis',(1.,3.80802212860167E-17,3.58048816991073E-17));
#216=DIRECTION('ref_axis',(0.,-0.441888375452712,0.897070043887189));
#217=DIRECTION('center_axis',(1.,4.39304794710784E-17,3.00689542865928E-16));
#218=DIRECTION('ref_axis',(-1.72279930759749E-16,0.897070043887189,0.441888375452712));
#219=DIRECTION('center_axis',(-1.,-3.80802212860167E-17,-3.58048816991073E-17));
#220=DIRECTION('ref_axis',(-4.84361550469693E-17,0.897070043887189,0.441888375452712));
#221=DIRECTION('center_axis',(1.,3.80802212860167E-17,3.58048816991073E-17));
#222=DIRECTION('ref_axis',(1.72279930759749E-16,-0.897070043887189,-0.441888375452712));
#223=DIRECTION('center_axis',(-1.,-6.91685068348914E-17,1.41424624425604E-16));
#224=DIRECTION('ref_axis',(4.44902074452754E-19,0.897070043887189,0.441888375452712));
#225=DIRECTION('center_axis',(1.,3.80802212860167E-17,3.58048816991073E-17));
#226=DIRECTION('ref_axis',(1.72279930759749E-16,-0.897070043887189,-0.441888375452712));
#227=DIRECTION('center_axis',(1.,3.80802212860167E-17,3.58048816991073E-17));
#228=DIRECTION('ref_axis',(-1.52922796762361E-17,-0.441888375452712,0.897070043887189));
#229=DIRECTION('center_axis',(1.,3.80802212860167E-17,3.58048816991073E-17));
#230=DIRECTION('ref_axis',(0.,-0.441888375452712,0.897070043887189));
#231=DIRECTION('center_axis',(1.,3.80802212860167E-17,3.58048816991073E-17));
#232=DIRECTION('ref_axis',(-5.20786190385217E-17,0.897070043887189,0.441888375452712));
#233=DIRECTION('center_axis',(1.,3.80802212860167E-17,3.58048816991073E-17));
#234=DIRECTION('ref_axis',(1.72279930759749E-16,-0.897070043887189,-0.441888375452712));
#235=DIRECTION('center_axis',(1.,3.80802212860167E-17,3.58048816991073E-17));
#236=DIRECTION('ref_axis',(-1.52922796762361E-17,-0.441888375452712,0.897070043887189));
#237=DIRECTION('center_axis',(1.,3.80802212860167E-17,3.58048816991073E-17));
#238=DIRECTION('ref_axis',(-1.52922796762361E-17,-0.441888375452712,0.897070043887189));
#239=DIRECTION('center_axis',(-1.,-3.80802212860167E-17,-3.58048816991073E-17));
#240=DIRECTION('ref_axis',(0.,0.441888375452712,-0.897070043887189));
#241=CARTESIAN_POINT('',(0.,0.,0.));
#242=CARTESIAN_POINT('Origin',(-2.92080777983773,2.15415080626916E-16,2.02543767278018E-16));
#243=CARTESIAN_POINT('',(-3.05523017239083,-2.61380158492123,-1.28753439487476));
#244=CARTESIAN_POINT('Origin',(-3.05523017239083,1.42152914505144E-16,6.71924138539975E-16));
#245=CARTESIAN_POINT('',(-2.92080777983773,-2.6329005788089,-1.29694238195371));
#246=CARTESIAN_POINT('Origin',(-2.92080777983773,2.15415080626916E-16,2.02543767278018E-16));
#247=CARTESIAN_POINT('Origin',(-4.51875566395325,1.54564871596275E-16,1.45329432325923E-16));
#248=CARTESIAN_POINT('',(-5.98228115551567,-1.76063727410914,-0.867273575925379));
#249=CARTESIAN_POINT('Origin',(-5.98228115551567,8.75832087014825E-17,4.32853017862618E-16));
#250=CARTESIAN_POINT('Origin',(-1.5,2.69519755288031E-16,2.53415621752279E-16));
#251=CARTESIAN_POINT('',(0.,2.6329005788089,1.29694238195371));
#252=CARTESIAN_POINT('Origin',(0.,3.26640087217056E-16,3.0712294430094E-16));
#253=CARTESIAN_POINT('Origin',(-6.15687575733752,9.21848959471315E-17,8.66767361733686E-17));
#254=CARTESIAN_POINT('',(-6.15687575733752,-1.73583053492171,-0.855054006500998));
#255=CARTESIAN_POINT('Origin',(-6.15687575733752,9.21848959471315E-17,8.66767361733686E-17));
#256=CARTESIAN_POINT('Origin',(-7.32768353717525,4.76002766075207E-17,4.47561021238841E-17));
#257=CARTESIAN_POINT('',(-8.57768353717525,1.73583053492171,0.855054006500998));
#258=CARTESIAN_POINT('Origin',(-8.57768353717525,-2.94851508723187E-31,
-5.5835093658362E-32));
#259=CARTESIAN_POINT('Origin',(-2.92080777983773,2.15415080626916E-16,2.02543767278018E-16));
#260=CARTESIAN_POINT('',(-3.0753162770252,-2.66925726512402,-1.31485134810647));
#261=CARTESIAN_POINT('Origin',(-3.0753162770252,1.41388031195893E-16,6.71204957939746E-16));
#262=CARTESIAN_POINT('',(-2.92080777983773,-2.69121013166157,-1.32566512635814));
#263=CARTESIAN_POINT('Origin',(-2.92080777983773,2.15415080626916E-16,2.02543767278018E-16));
#264=CARTESIAN_POINT('Origin',(-4.53884176858763,1.53799988287024E-16,1.44610251725693E-16));
#265=CARTESIAN_POINT('',(-6.00236726015005,-1.81609295431193,-0.894590529157089));
#266=CARTESIAN_POINT('Origin',(-6.00236726015005,8.68183253922315E-17,4.32133837262389E-16));
#267=CARTESIAN_POINT('Origin',(-1.5,2.69519755288031E-16,2.53415621752279E-16));
#268=CARTESIAN_POINT('',(0.,-2.69121013166157,-1.32566512635814));
#269=CARTESIAN_POINT('Origin',(0.,3.26640087217056E-16,3.0712294430094E-16));
#270=CARTESIAN_POINT('Origin',(-6.15687575733752,9.21848959471315E-17,8.66767361733686E-17));
#271=CARTESIAN_POINT('',(-6.15687575733752,-1.79414008777438,-0.883776750905424));
#272=CARTESIAN_POINT('Origin',(-6.15687575733752,9.21848959471315E-17,8.66767361733686E-17));
#273=CARTESIAN_POINT('Origin',(-7.32768353717525,4.76002766075207E-17,4.47561021238841E-17));
#274=CARTESIAN_POINT('',(-8.57768353717525,-1.79414008777438,-0.883776750905424));
#275=CARTESIAN_POINT('Origin',(-8.57768353717525,-2.94851508723187E-31,
-5.5835093658362E-32));
#276=CARTESIAN_POINT('Origin',(0.,3.26640087217057E-16,3.0712294430094E-16));
#277=CARTESIAN_POINT('Origin',(-8.57768353717525,-1.79414008777438,-0.883776750905424));
#278=UNCERTAINTY_MEASURE_WITH_UNIT(LENGTH_MEASURE(0.000393700787401575),
#282,'DISTANCE_ACCURACY_VALUE',
'Maximum model space distance between geometric entities at asserted c
onnectivities');
#279=UNCERTAINTY_MEASURE_WITH_UNIT(LENGTH_MEASURE(1.E-6),#283,
'DISTANCE_ACCURACY_VALUE',
'Maximum model space distance between geometric entities at asserted c
onnectivities');
#280=(
GEOMETRIC_REPRESENTATION_CONTEXT(3)
GLOBAL_UNCERTAINTY_ASSIGNED_CONTEXT((#278))
GLOBAL_UNIT_ASSIGNED_CONTEXT((#282,#288,#285))
REPRESENTATION_CONTEXT('','3D')
);
#281=(
GEOMETRIC_REPRESENTATION_CONTEXT(3)
GLOBAL_UNCERTAINTY_ASSIGNED_CONTEXT((#279))
GLOBAL_UNIT_ASSIGNED_CONTEXT((#283,#288,#285))
REPRESENTATION_CONTEXT('','3D')
);
#282=(
CONVERSION_BASED_UNIT('__CONSTANT UNIT inch',#284)
LENGTH_UNIT()
NAMED_UNIT(#287)
);
#283=(
LENGTH_UNIT()
NAMED_UNIT(*)
SI_UNIT(.MILLI.,.METRE.)
);
#284=LENGTH_MEASURE_WITH_UNIT(LENGTH_MEASURE(25.4),#283);
#285=(
NAMED_UNIT(*)
SI_UNIT($,.STERADIAN.)
SOLID_ANGLE_UNIT()
);
#286=DIMENSIONAL_EXPONENTS(0.,0.,0.,0.,0.,0.,0.);
#287=DIMENSIONAL_EXPONENTS(1.,0.,0.,0.,0.,0.,0.);
#288=(
CONVERSION_BASED_UNIT('degree',#290)
NAMED_UNIT(#286)
PLANE_ANGLE_UNIT()
);
#289=(
NAMED_UNIT(*)
PLANE_ANGLE_UNIT()
SI_UNIT($,.RADIAN.)
);
#290=PLANE_ANGLE_MEASURE_WITH_UNIT(PLANE_ANGLE_MEASURE(0.01745329252),#289);
#291=SHAPE_DEFINITION_REPRESENTATION(#292,#293);
#292=PRODUCT_DEFINITION_SHAPE('',$,#295);
#293=SHAPE_REPRESENTATION('',(#166),#280);
#294=PRODUCT_DEFINITION_CONTEXT('part definition',#299,'design');
#295=PRODUCT_DEFINITION('PAR00003_1','PAR00003_1',#296,#294);
#296=PRODUCT_DEFINITION_FORMATION('',$,#301);
#297=PRODUCT_RELATED_PRODUCT_CATEGORY('PAR00003_1','PAR00003_1',(#301));
#298=APPLICATION_PROTOCOL_DEFINITION('international standard',
'automotive_design',2009,#299);
#299=APPLICATION_CONTEXT(
'Core Data for Automotive Mechanical Design Process');
#300=PRODUCT_CONTEXT('part definition',#299,'mechanical');
#301=PRODUCT('PAR00003_1','PAR00003_1',$,(#300));
#302=PRESENTATION_STYLE_ASSIGNMENT((#304));
#303=PRESENTATION_STYLE_ASSIGNMENT((#305));
#304=SURFACE_STYLE_USAGE(.BOTH.,#306);
#305=SURFACE_STYLE_USAGE(.BOTH.,#307);
#306=SURFACE_SIDE_STYLE('',(#308));
#307=SURFACE_SIDE_STYLE('',(#309));
#308=SURFACE_STYLE_FILL_AREA(#310);
#309=SURFACE_STYLE_FILL_AREA(#311);
#310=FILL_AREA_STYLE('',(#312));
#311=FILL_AREA_STYLE('',(#313));
#312=FILL_AREA_STYLE_COLOUR('',#314);
#313=FILL_AREA_STYLE_COLOUR('',#315);
#314=COLOUR_RGB('',0.749019607843137,0.749019607843137,0.749019607843137);
#315=COLOUR_RGB('',0.745098039215686,0.737254901960784,0.729411764705882);
ENDSEC;
END-ISO-10303-21;
