ISO-10303-21;
HEADER;
/* Generated by software containing ST-Developer
 * from STEP Tools, Inc. (www.steptools.com) 
 */

FILE_DESCRIPTION(
/* description */ (''),
/* implementation_level */ '2;1');

FILE_NAME(
/* name */ 
'D:\\Exports\\Inventor Pro\\Finals for Review\\STEP\\PAR00005_A.stp',
/* time_stamp */ '2018-03-22T09:48:54-04:00',
/* author */ ('James'),
/* organization */ (''),
/* preprocessor_version */ 'ST-DEVELOPER v16.5',
/* originating_system */ 'Autodesk Inventor 2017',
/* authorisation */ '');

FILE_SCHEMA (('AUTOMOTIVE_DESIGN { 1 0 10303 214 3 1 1 }'));
ENDSEC;

DATA;
#10=MECHANICAL_DESIGN_GEOMETRIC_PRESENTATION_REPRESENTATION('',(#13),#229);
#11=SHAPE_REPRESENTATION_RELATIONSHIP('SRR','None',#241,#12);
#12=ADVANCED_BREP_SHAPE_REPRESENTATION('',(#14),#228);
#13=STYLED_ITEM('',(#250),#14);
#14=MANIFOLD_SOLID_BREP('Solid1',#125);
#15=PLANE('',#142);
#16=PLANE('',#152);
#17=TOROIDAL_SURFACE('',#136,1.36,0.425);
#18=TOROIDAL_SURFACE('',#138,1.25,0.185);
#19=TOROIDAL_SURFACE('',#146,1.36,0.36);
#20=TOROIDAL_SURFACE('',#148,1.25,0.25);
#21=FACE_BOUND('',#42,.T.);
#22=FACE_BOUND('',#44,.T.);
#23=FACE_BOUND('',#46,.T.);
#24=FACE_BOUND('',#48,.T.);
#25=FACE_BOUND('',#50,.T.);
#26=FACE_BOUND('',#52,.T.);
#27=FACE_BOUND('',#54,.T.);
#28=FACE_BOUND('',#56,.T.);
#29=FACE_BOUND('',#58,.T.);
#30=FACE_BOUND('',#60,.T.);
#31=FACE_OUTER_BOUND('',#41,.T.);
#32=FACE_OUTER_BOUND('',#43,.T.);
#33=FACE_OUTER_BOUND('',#45,.T.);
#34=FACE_OUTER_BOUND('',#47,.T.);
#35=FACE_OUTER_BOUND('',#49,.T.);
#36=FACE_OUTER_BOUND('',#51,.T.);
#37=FACE_OUTER_BOUND('',#53,.T.);
#38=FACE_OUTER_BOUND('',#55,.T.);
#39=FACE_OUTER_BOUND('',#57,.T.);
#40=FACE_OUTER_BOUND('',#59,.T.);
#41=EDGE_LOOP('',(#91));
#42=EDGE_LOOP('',(#92));
#43=EDGE_LOOP('',(#93));
#44=EDGE_LOOP('',(#94));
#45=EDGE_LOOP('',(#95));
#46=EDGE_LOOP('',(#96));
#47=EDGE_LOOP('',(#97));
#48=EDGE_LOOP('',(#98));
#49=EDGE_LOOP('',(#99));
#50=EDGE_LOOP('',(#100));
#51=EDGE_LOOP('',(#101));
#52=EDGE_LOOP('',(#102));
#53=EDGE_LOOP('',(#103));
#54=EDGE_LOOP('',(#104));
#55=EDGE_LOOP('',(#105));
#56=EDGE_LOOP('',(#106));
#57=EDGE_LOOP('',(#107));
#58=EDGE_LOOP('',(#108));
#59=EDGE_LOOP('',(#109));
#60=EDGE_LOOP('',(#110));
#61=CIRCLE('',#134,0.935);
#62=CIRCLE('',#135,0.935);
#63=CIRCLE('',#137,1.28336065573771);
#64=CIRCLE('',#139,1.435);
#65=CIRCLE('',#141,1.435);
#66=CIRCLE('',#143,1.);
#67=CIRCLE('',#145,1.);
#68=CIRCLE('',#147,1.29508196721312);
#69=CIRCLE('',#149,1.5);
#70=CIRCLE('',#151,1.5);
#71=VERTEX_POINT('',#197);
#72=VERTEX_POINT('',#199);
#73=VERTEX_POINT('',#202);
#74=VERTEX_POINT('',#205);
#75=VERTEX_POINT('',#208);
#76=VERTEX_POINT('',#211);
#77=VERTEX_POINT('',#214);
#78=VERTEX_POINT('',#217);
#79=VERTEX_POINT('',#220);
#80=VERTEX_POINT('',#223);
#81=EDGE_CURVE('',#71,#71,#61,.T.);
#82=EDGE_CURVE('',#72,#72,#62,.T.);
#83=EDGE_CURVE('',#73,#73,#63,.T.);
#84=EDGE_CURVE('',#74,#74,#64,.T.);
#85=EDGE_CURVE('',#75,#75,#65,.T.);
#86=EDGE_CURVE('',#76,#76,#66,.T.);
#87=EDGE_CURVE('',#77,#77,#67,.T.);
#88=EDGE_CURVE('',#78,#78,#68,.T.);
#89=EDGE_CURVE('',#79,#79,#69,.T.);
#90=EDGE_CURVE('',#80,#80,#70,.T.);
#91=ORIENTED_EDGE('',*,*,#81,.F.);
#92=ORIENTED_EDGE('',*,*,#82,.T.);
#93=ORIENTED_EDGE('',*,*,#82,.F.);
#94=ORIENTED_EDGE('',*,*,#83,.T.);
#95=ORIENTED_EDGE('',*,*,#83,.F.);
#96=ORIENTED_EDGE('',*,*,#84,.T.);
#97=ORIENTED_EDGE('',*,*,#84,.F.);
#98=ORIENTED_EDGE('',*,*,#85,.F.);
#99=ORIENTED_EDGE('',*,*,#86,.F.);
#100=ORIENTED_EDGE('',*,*,#81,.T.);
#101=ORIENTED_EDGE('',*,*,#86,.T.);
#102=ORIENTED_EDGE('',*,*,#87,.F.);
#103=ORIENTED_EDGE('',*,*,#87,.T.);
#104=ORIENTED_EDGE('',*,*,#88,.F.);
#105=ORIENTED_EDGE('',*,*,#88,.T.);
#106=ORIENTED_EDGE('',*,*,#89,.F.);
#107=ORIENTED_EDGE('',*,*,#89,.T.);
#108=ORIENTED_EDGE('',*,*,#90,.F.);
#109=ORIENTED_EDGE('',*,*,#90,.T.);
#110=ORIENTED_EDGE('',*,*,#85,.T.);
#111=CYLINDRICAL_SURFACE('',#133,0.935);
#112=CYLINDRICAL_SURFACE('',#140,1.435);
#113=CYLINDRICAL_SURFACE('',#144,1.);
#114=CYLINDRICAL_SURFACE('',#150,1.5);
#115=ADVANCED_FACE('',(#31,#21),#111,.F.);
#116=ADVANCED_FACE('',(#32,#22),#17,.T.);
#117=ADVANCED_FACE('',(#33,#23),#18,.F.);
#118=ADVANCED_FACE('',(#34,#24),#112,.F.);
#119=ADVANCED_FACE('',(#35,#25),#15,.T.);
#120=ADVANCED_FACE('',(#36,#26),#113,.T.);
#121=ADVANCED_FACE('',(#37,#27),#19,.F.);
#122=ADVANCED_FACE('',(#38,#28),#20,.T.);
#123=ADVANCED_FACE('',(#39,#29),#114,.T.);
#124=ADVANCED_FACE('',(#40,#30),#16,.T.);
#125=CLOSED_SHELL('',(#115,#116,#117,#118,#119,#120,#121,#122,#123,#124));
#126=DATE_TIME_ROLE('creation_date');
#127=APPLIED_DATE_AND_TIME_ASSIGNMENT(#128,#126,(#243));
#128=DATE_AND_TIME(#129,#130);
#129=CALENDAR_DATE(2018,19,3);
#130=LOCAL_TIME(17,31,59.,#131);
#131=COORDINATED_UNIVERSAL_TIME_OFFSET(0,0,.BEHIND.);
#132=AXIS2_PLACEMENT_3D('placement',#195,#153,#154);
#133=AXIS2_PLACEMENT_3D('',#196,#155,#156);
#134=AXIS2_PLACEMENT_3D('',#198,#157,#158);
#135=AXIS2_PLACEMENT_3D('',#200,#159,#160);
#136=AXIS2_PLACEMENT_3D('',#201,#161,#162);
#137=AXIS2_PLACEMENT_3D('',#203,#163,#164);
#138=AXIS2_PLACEMENT_3D('',#204,#165,#166);
#139=AXIS2_PLACEMENT_3D('',#206,#167,#168);
#140=AXIS2_PLACEMENT_3D('',#207,#169,#170);
#141=AXIS2_PLACEMENT_3D('',#209,#171,#172);
#142=AXIS2_PLACEMENT_3D('',#210,#173,#174);
#143=AXIS2_PLACEMENT_3D('',#212,#175,#176);
#144=AXIS2_PLACEMENT_3D('',#213,#177,#178);
#145=AXIS2_PLACEMENT_3D('',#215,#179,#180);
#146=AXIS2_PLACEMENT_3D('',#216,#181,#182);
#147=AXIS2_PLACEMENT_3D('',#218,#183,#184);
#148=AXIS2_PLACEMENT_3D('',#219,#185,#186);
#149=AXIS2_PLACEMENT_3D('',#221,#187,#188);
#150=AXIS2_PLACEMENT_3D('',#222,#189,#190);
#151=AXIS2_PLACEMENT_3D('',#224,#191,#192);
#152=AXIS2_PLACEMENT_3D('',#225,#193,#194);
#153=DIRECTION('axis',(0.,0.,1.));
#154=DIRECTION('refdir',(1.,0.,0.));
#155=DIRECTION('center_axis',(1.,1.27930442630131E-16,0.));
#156=DIRECTION('ref_axis',(0.,1.,0.));
#157=DIRECTION('center_axis',(1.,1.27930442630131E-16,0.));
#158=DIRECTION('ref_axis',(0.,1.,0.));
#159=DIRECTION('center_axis',(1.,1.27930442630131E-16,0.));
#160=DIRECTION('ref_axis',(0.,0.,-1.));
#161=DIRECTION('center_axis',(1.,1.27930442630131E-16,0.));
#162=DIRECTION('ref_axis',(0.,0.,-1.));
#163=DIRECTION('center_axis',(1.,1.27930442630131E-16,0.));
#164=DIRECTION('ref_axis',(0.,0.,-1.));
#165=DIRECTION('center_axis',(1.,1.27930442630131E-16,0.));
#166=DIRECTION('ref_axis',(0.,0.,-1.));
#167=DIRECTION('center_axis',(1.,1.27930442630131E-16,0.));
#168=DIRECTION('ref_axis',(0.,0.,-1.));
#169=DIRECTION('center_axis',(1.,1.27930442630131E-16,0.));
#170=DIRECTION('ref_axis',(0.,1.,0.));
#171=DIRECTION('center_axis',(-1.,-1.27930442630131E-16,0.));
#172=DIRECTION('ref_axis',(0.,1.,0.));
#173=DIRECTION('center_axis',(-1.,-1.27930442630131E-16,0.));
#174=DIRECTION('ref_axis',(0.,0.,1.));
#175=DIRECTION('center_axis',(1.,1.27930442630131E-16,0.));
#176=DIRECTION('ref_axis',(0.,0.,-1.));
#177=DIRECTION('center_axis',(1.,1.27930442630131E-16,0.));
#178=DIRECTION('ref_axis',(0.,1.,0.));
#179=DIRECTION('center_axis',(1.,1.27930442630131E-16,0.));
#180=DIRECTION('ref_axis',(0.,0.,-1.));
#181=DIRECTION('center_axis',(1.,1.27930442630131E-16,0.));
#182=DIRECTION('ref_axis',(0.,0.,-1.));
#183=DIRECTION('center_axis',(1.,1.27930442630131E-16,0.));
#184=DIRECTION('ref_axis',(0.,0.,-1.));
#185=DIRECTION('center_axis',(1.,1.27930442630131E-16,0.));
#186=DIRECTION('ref_axis',(0.,0.,-1.));
#187=DIRECTION('center_axis',(1.,1.27930442630131E-16,0.));
#188=DIRECTION('ref_axis',(0.,0.,-1.));
#189=DIRECTION('center_axis',(1.,1.27930442630131E-16,0.));
#190=DIRECTION('ref_axis',(0.,1.,0.));
#191=DIRECTION('center_axis',(1.,1.27930442630131E-16,0.));
#192=DIRECTION('ref_axis',(0.,0.,-1.));
#193=DIRECTION('center_axis',(1.,1.27930442630131E-16,0.));
#194=DIRECTION('ref_axis',(0.,0.,-1.));
#195=CARTESIAN_POINT('',(0.,0.,0.));
#196=CARTESIAN_POINT('Origin',(0.874999999999999,1.11939137301365E-16,0.));
#197=CARTESIAN_POINT('',(0.,-0.935,-1.14504475720278E-16));
#198=CARTESIAN_POINT('Origin',(0.,7.76437898839578E-32,0.));
#199=CARTESIAN_POINT('',(1.75,0.935000000000001,0.));
#200=CARTESIAN_POINT('Origin',(1.75,2.2387827460273E-16,0.));
#201=CARTESIAN_POINT('Origin',(1.75,2.2387827460273E-16,0.));
#202=CARTESIAN_POINT('',(2.16803278688525,1.28336065573771,0.));
#203=CARTESIAN_POINT('Origin',(2.16803278688525,2.77357394062867E-16,0.));
#204=CARTESIAN_POINT('Origin',(2.35,3.00636540180809E-16,0.));
#205=CARTESIAN_POINT('',(2.35,1.435,0.));
#206=CARTESIAN_POINT('Origin',(2.35,3.00636540180809E-16,0.));
#207=CARTESIAN_POINT('Origin',(3.225,4.12575677482173E-16,0.));
#208=CARTESIAN_POINT('',(4.1,-1.435,1.75736815677645E-16));
#209=CARTESIAN_POINT('Origin',(4.1,5.24514814783538E-16,0.));
#210=CARTESIAN_POINT('Origin',(-1.83697019872103E-16,1.,0.));
#211=CARTESIAN_POINT('',(-1.83697019872103E-16,1.,0.));
#212=CARTESIAN_POINT('Origin',(0.,0.,0.));
#213=CARTESIAN_POINT('Origin',(0.874999999999999,1.11939137301365E-16,0.));
#214=CARTESIAN_POINT('',(1.75,1.,0.));
#215=CARTESIAN_POINT('Origin',(1.75,2.2387827460273E-16,0.));
#216=CARTESIAN_POINT('Origin',(1.75,2.2387827460273E-16,0.));
#217=CARTESIAN_POINT('',(2.10409836065574,1.29508196721312,0.));
#218=CARTESIAN_POINT('Origin',(2.10409836065574,2.69178234616022E-16,0.));
#219=CARTESIAN_POINT('Origin',(2.35,3.00636540180809E-16,0.));
#220=CARTESIAN_POINT('',(2.35,1.5,0.));
#221=CARTESIAN_POINT('Origin',(2.35,3.00636540180809E-16,0.));
#222=CARTESIAN_POINT('Origin',(3.225,4.12575677482173E-16,0.));
#223=CARTESIAN_POINT('',(4.1,1.5,0.));
#224=CARTESIAN_POINT('Origin',(4.1,5.24514814783538E-16,0.));
#225=CARTESIAN_POINT('Origin',(4.1,5.24514814783538E-16,0.));
#226=UNCERTAINTY_MEASURE_WITH_UNIT(LENGTH_MEASURE(0.000393700787401575),
#230,'DISTANCE_ACCURACY_VALUE',
'Maximum model space distance between geometric entities at asserted c
onnectivities');
#227=UNCERTAINTY_MEASURE_WITH_UNIT(LENGTH_MEASURE(1.E-6),#231,
'DISTANCE_ACCURACY_VALUE',
'Maximum model space distance between geometric entities at asserted c
onnectivities');
#228=(
GEOMETRIC_REPRESENTATION_CONTEXT(3)
GLOBAL_UNCERTAINTY_ASSIGNED_CONTEXT((#226))
GLOBAL_UNIT_ASSIGNED_CONTEXT((#230,#236,#233))
REPRESENTATION_CONTEXT('','3D')
);
#229=(
GEOMETRIC_REPRESENTATION_CONTEXT(3)
GLOBAL_UNCERTAINTY_ASSIGNED_CONTEXT((#227))
GLOBAL_UNIT_ASSIGNED_CONTEXT((#231,#236,#233))
REPRESENTATION_CONTEXT('','3D')
);
#230=(
CONVERSION_BASED_UNIT('__CONSTANT UNIT inch',#232)
LENGTH_UNIT()
NAMED_UNIT(#235)
);
#231=(
LENGTH_UNIT()
NAMED_UNIT(*)
SI_UNIT(.MILLI.,.METRE.)
);
#232=LENGTH_MEASURE_WITH_UNIT(LENGTH_MEASURE(25.4),#231);
#233=(
NAMED_UNIT(*)
SI_UNIT($,.STERADIAN.)
SOLID_ANGLE_UNIT()
);
#234=DIMENSIONAL_EXPONENTS(0.,0.,0.,0.,0.,0.,0.);
#235=DIMENSIONAL_EXPONENTS(1.,0.,0.,0.,0.,0.,0.);
#236=(
CONVERSION_BASED_UNIT('degree',#238)
NAMED_UNIT(#234)
PLANE_ANGLE_UNIT()
);
#237=(
NAMED_UNIT(*)
PLANE_ANGLE_UNIT()
SI_UNIT($,.RADIAN.)
);
#238=PLANE_ANGLE_MEASURE_WITH_UNIT(PLANE_ANGLE_MEASURE(0.01745329252),#237);
#239=SHAPE_DEFINITION_REPRESENTATION(#240,#241);
#240=PRODUCT_DEFINITION_SHAPE('',$,#243);
#241=SHAPE_REPRESENTATION('',(#132),#228);
#242=PRODUCT_DEFINITION_CONTEXT('part definition',#247,'design');
#243=PRODUCT_DEFINITION('PAR00005 REDUCER, 3IN X 2IN',
'PAR00005 REDUCER, 3IN X 2IN',#244,#242);
#244=PRODUCT_DEFINITION_FORMATION('',$,#249);
#245=PRODUCT_RELATED_PRODUCT_CATEGORY('PAR00005 REDUCER, 3IN X 2IN',
'PAR00005 REDUCER, 3IN X 2IN',(#249));
#246=APPLICATION_PROTOCOL_DEFINITION('international standard',
'automotive_design',2009,#247);
#247=APPLICATION_CONTEXT(
'Core Data for Automotive Mechanical Design Process');
#248=PRODUCT_CONTEXT('part definition',#247,'mechanical');
#249=PRODUCT('PAR00005 REDUCER, 3IN X 2IN',
'PAR00005 REDUCER, 3IN X 2IN',$,(#248));
#250=PRESENTATION_STYLE_ASSIGNMENT((#251));
#251=SURFACE_STYLE_USAGE(.BOTH.,#252);
#252=SURFACE_SIDE_STYLE('',(#253));
#253=SURFACE_STYLE_FILL_AREA(#254);
#254=FILL_AREA_STYLE('',(#255));
#255=FILL_AREA_STYLE_COLOUR('',#256);
#256=COLOUR_RGB('',0.745098039215686,0.737254901960784,0.729411764705882);
ENDSEC;
END-ISO-10303-21;
