ISO-10303-21;
HEADER;
/* Generated by software containing ST-Developer
 * from STEP Tools, Inc. (www.steptools.com) 
 */

FILE_DESCRIPTION(
/* description */ (''),
/* implementation_level */ '2;1');

FILE_NAME(
/* name */ 
'C:\\Users\\James\\Documents\\Kyle\\Transfer\\Inventor\\PA\\PAY00004_B.
stp',
/* time_stamp */ '2023-04-21T10:17:31-04:00',
/* author */ ('James'),
/* organization */ (''),
/* preprocessor_version */ 'ST-DEVELOPER v18.1',
/* originating_system */ 'Autodesk Inventor 2021',
/* authorisation */ '');

FILE_SCHEMA (('AUTOMOTIVE_DESIGN { 1 0 10303 214 3 1 1 }'));
ENDSEC;

DATA;
#10=MECHANICAL_DESIGN_GEOMETRIC_PRESENTATION_REPRESENTATION('',(#13),#317);
#11=SHAPE_REPRESENTATION_RELATIONSHIP('SRR','None',#327,#12);
#12=ADVANCED_BREP_SHAPE_REPRESENTATION('',(#14),#316);
#13=STYLED_ITEM('',(#336),#14);
#14=MANIFOLD_SOLID_BREP('Solid1',#165);
#15=FACE_BOUND('',#35,.T.);
#16=FACE_BOUND('',#39,.T.);
#17=FACE_BOUND('',#41,.T.);
#18=PLANE('',#202);
#19=PLANE('',#208);
#20=PLANE('',#209);
#21=FACE_OUTER_BOUND('',#30,.T.);
#22=FACE_OUTER_BOUND('',#31,.T.);
#23=FACE_OUTER_BOUND('',#32,.T.);
#24=FACE_OUTER_BOUND('',#33,.T.);
#25=FACE_OUTER_BOUND('',#34,.T.);
#26=FACE_OUTER_BOUND('',#36,.T.);
#27=FACE_OUTER_BOUND('',#37,.T.);
#28=FACE_OUTER_BOUND('',#38,.T.);
#29=FACE_OUTER_BOUND('',#40,.T.);
#30=EDGE_LOOP('',(#106,#107,#108,#109,#110,#111,#112));
#31=EDGE_LOOP('',(#113,#114,#115,#116,#117,#118));
#32=EDGE_LOOP('',(#119,#120,#121,#122,#123,#124));
#33=EDGE_LOOP('',(#125,#126,#127,#128,#129,#130,#131));
#34=EDGE_LOOP('',(#132));
#35=EDGE_LOOP('',(#133));
#36=EDGE_LOOP('',(#134,#135,#136,#137,#138,#139));
#37=EDGE_LOOP('',(#140,#141,#142,#143,#144,#145));
#38=EDGE_LOOP('',(#146));
#39=EDGE_LOOP('',(#147));
#40=EDGE_LOOP('',(#148));
#41=EDGE_LOOP('',(#149));
#42=CIRCLE('',#189,2.917);
#43=CIRCLE('',#192,2.917);
#44=CIRCLE('',#195,2.917);
#45=CIRCLE('',#197,3.);
#46=CIRCLE('',#204,3.);
#47=CIRCLE('',#207,3.);
#48=LINE('',#278,#54);
#49=LINE('',#284,#55);
#50=LINE('',#288,#56);
#51=LINE('',#294,#57);
#52=LINE('',#305,#58);
#53=LINE('',#311,#59);
#54=VECTOR('',#220,3.);
#55=VECTOR('',#229,3.);
#56=VECTOR('',#234,3.);
#57=VECTOR('',#241,3.);
#58=VECTOR('',#254,3.);
#59=VECTOR('',#263,3.);
#60=ELLIPSE('',#186,4.12526096144232,2.917);
#61=ELLIPSE('',#187,4.12526096144232,2.917);
#62=ELLIPSE('',#188,3.15733804825291,2.917);
#63=ELLIPSE('',#190,3.15733804825291,2.917);
#64=ELLIPSE('',#193,3.15733804825291,2.917);
#65=ELLIPSE('',#198,3.24717660087718,3.);
#66=ELLIPSE('',#199,4.24264068711929,3.);
#67=ELLIPSE('',#200,4.24264068711929,3.);
#68=ELLIPSE('',#201,3.24717660087718,3.);
#69=ELLIPSE('',#205,3.24717660087718,3.);
#70=VERTEX_POINT('',#270);
#71=VERTEX_POINT('',#271);
#72=VERTEX_POINT('',#273);
#73=VERTEX_POINT('',#275);
#74=VERTEX_POINT('',#277);
#75=VERTEX_POINT('',#282);
#76=VERTEX_POINT('',#287);
#77=VERTEX_POINT('',#291);
#78=VERTEX_POINT('',#293);
#79=VERTEX_POINT('',#295);
#80=VERTEX_POINT('',#297);
#81=VERTEX_POINT('',#299);
#82=VERTEX_POINT('',#304);
#83=VERTEX_POINT('',#309);
#84=EDGE_CURVE('',#70,#71,#60,.F.);
#85=EDGE_CURVE('',#71,#72,#61,.F.);
#86=EDGE_CURVE('',#72,#73,#62,.F.);
#87=EDGE_CURVE('',#73,#74,#48,.T.);
#88=EDGE_CURVE('',#74,#74,#42,.T.);
#89=EDGE_CURVE('',#73,#70,#63,.F.);
#90=EDGE_CURVE('',#75,#75,#43,.T.);
#91=EDGE_CURVE('',#75,#73,#49,.T.);
#92=EDGE_CURVE('',#70,#72,#64,.F.);
#93=EDGE_CURVE('',#71,#76,#50,.T.);
#94=EDGE_CURVE('',#76,#76,#44,.T.);
#95=EDGE_CURVE('',#77,#77,#45,.T.);
#96=EDGE_CURVE('',#77,#78,#51,.T.);
#97=EDGE_CURVE('',#79,#78,#65,.T.);
#98=EDGE_CURVE('',#80,#79,#66,.T.);
#99=EDGE_CURVE('',#81,#80,#67,.T.);
#100=EDGE_CURVE('',#78,#81,#68,.T.);
#101=EDGE_CURVE('',#78,#82,#52,.T.);
#102=EDGE_CURVE('',#82,#82,#46,.T.);
#103=EDGE_CURVE('',#81,#79,#69,.T.);
#104=EDGE_CURVE('',#83,#83,#47,.T.);
#105=EDGE_CURVE('',#83,#80,#53,.T.);
#106=ORIENTED_EDGE('',*,*,#84,.T.);
#107=ORIENTED_EDGE('',*,*,#85,.T.);
#108=ORIENTED_EDGE('',*,*,#86,.T.);
#109=ORIENTED_EDGE('',*,*,#87,.T.);
#110=ORIENTED_EDGE('',*,*,#88,.F.);
#111=ORIENTED_EDGE('',*,*,#87,.F.);
#112=ORIENTED_EDGE('',*,*,#89,.T.);
#113=ORIENTED_EDGE('',*,*,#90,.F.);
#114=ORIENTED_EDGE('',*,*,#91,.T.);
#115=ORIENTED_EDGE('',*,*,#86,.F.);
#116=ORIENTED_EDGE('',*,*,#92,.F.);
#117=ORIENTED_EDGE('',*,*,#89,.F.);
#118=ORIENTED_EDGE('',*,*,#91,.F.);
#119=ORIENTED_EDGE('',*,*,#84,.F.);
#120=ORIENTED_EDGE('',*,*,#92,.T.);
#121=ORIENTED_EDGE('',*,*,#85,.F.);
#122=ORIENTED_EDGE('',*,*,#93,.T.);
#123=ORIENTED_EDGE('',*,*,#94,.F.);
#124=ORIENTED_EDGE('',*,*,#93,.F.);
#125=ORIENTED_EDGE('',*,*,#95,.F.);
#126=ORIENTED_EDGE('',*,*,#96,.T.);
#127=ORIENTED_EDGE('',*,*,#97,.F.);
#128=ORIENTED_EDGE('',*,*,#98,.F.);
#129=ORIENTED_EDGE('',*,*,#99,.F.);
#130=ORIENTED_EDGE('',*,*,#100,.F.);
#131=ORIENTED_EDGE('',*,*,#96,.F.);
#132=ORIENTED_EDGE('',*,*,#95,.T.);
#133=ORIENTED_EDGE('',*,*,#88,.T.);
#134=ORIENTED_EDGE('',*,*,#97,.T.);
#135=ORIENTED_EDGE('',*,*,#101,.T.);
#136=ORIENTED_EDGE('',*,*,#102,.F.);
#137=ORIENTED_EDGE('',*,*,#101,.F.);
#138=ORIENTED_EDGE('',*,*,#100,.T.);
#139=ORIENTED_EDGE('',*,*,#103,.T.);
#140=ORIENTED_EDGE('',*,*,#104,.F.);
#141=ORIENTED_EDGE('',*,*,#105,.T.);
#142=ORIENTED_EDGE('',*,*,#98,.T.);
#143=ORIENTED_EDGE('',*,*,#103,.F.);
#144=ORIENTED_EDGE('',*,*,#99,.T.);
#145=ORIENTED_EDGE('',*,*,#105,.F.);
#146=ORIENTED_EDGE('',*,*,#104,.T.);
#147=ORIENTED_EDGE('',*,*,#94,.T.);
#148=ORIENTED_EDGE('',*,*,#102,.T.);
#149=ORIENTED_EDGE('',*,*,#90,.T.);
#150=CYLINDRICAL_SURFACE('',#185,2.917);
#151=CYLINDRICAL_SURFACE('',#191,2.917);
#152=CYLINDRICAL_SURFACE('',#194,2.917);
#153=CYLINDRICAL_SURFACE('',#196,3.);
#154=CYLINDRICAL_SURFACE('',#203,3.);
#155=CYLINDRICAL_SURFACE('',#206,3.);
#156=ADVANCED_FACE('',(#21),#150,.F.);
#157=ADVANCED_FACE('',(#22),#151,.F.);
#158=ADVANCED_FACE('',(#23),#152,.F.);
#159=ADVANCED_FACE('',(#24),#153,.T.);
#160=ADVANCED_FACE('',(#25,#15),#18,.T.);
#161=ADVANCED_FACE('',(#26),#154,.T.);
#162=ADVANCED_FACE('',(#27),#155,.T.);
#163=ADVANCED_FACE('',(#28,#16),#19,.T.);
#164=ADVANCED_FACE('',(#29,#17),#20,.F.);
#165=CLOSED_SHELL('',(#156,#157,#158,#159,#160,#161,#162,#163,#164));
#166=DERIVED_UNIT_ELEMENT(#168,1.);
#167=DERIVED_UNIT_ELEMENT(#321,-3.);
#168=(
MASS_UNIT()
NAMED_UNIT(*)
SI_UNIT($,.GRAM.)
);
#169=DERIVED_UNIT((#166,#167));
#170=MEASURE_REPRESENTATION_ITEM('density measure',
POSITIVE_RATIO_MEASURE(8.),#169);
#171=PROPERTY_DEFINITION_REPRESENTATION(#176,#173);
#172=PROPERTY_DEFINITION_REPRESENTATION(#177,#174);
#173=REPRESENTATION('material name',(#175),#316);
#174=REPRESENTATION('density',(#170),#316);
#175=DESCRIPTIVE_REPRESENTATION_ITEM('Stainless Steel',
'Stainless Steel');
#176=PROPERTY_DEFINITION('material property','material name',#329);
#177=PROPERTY_DEFINITION('material property','density of part',#329);
#178=DATE_TIME_ROLE('creation_date');
#179=APPLIED_DATE_AND_TIME_ASSIGNMENT(#180,#178,(#329));
#180=DATE_AND_TIME(#181,#182);
#181=CALENDAR_DATE(2021,13,9);
#182=LOCAL_TIME(0,0,0.,#183);
#183=COORDINATED_UNIVERSAL_TIME_OFFSET(0,0,.BEHIND.);
#184=AXIS2_PLACEMENT_3D('placement',#268,#210,#211);
#185=AXIS2_PLACEMENT_3D('',#269,#212,#213);
#186=AXIS2_PLACEMENT_3D('',#272,#214,#215);
#187=AXIS2_PLACEMENT_3D('',#274,#216,#217);
#188=AXIS2_PLACEMENT_3D('',#276,#218,#219);
#189=AXIS2_PLACEMENT_3D('',#279,#221,#222);
#190=AXIS2_PLACEMENT_3D('',#280,#223,#224);
#191=AXIS2_PLACEMENT_3D('',#281,#225,#226);
#192=AXIS2_PLACEMENT_3D('',#283,#227,#228);
#193=AXIS2_PLACEMENT_3D('',#285,#230,#231);
#194=AXIS2_PLACEMENT_3D('',#286,#232,#233);
#195=AXIS2_PLACEMENT_3D('',#289,#235,#236);
#196=AXIS2_PLACEMENT_3D('',#290,#237,#238);
#197=AXIS2_PLACEMENT_3D('',#292,#239,#240);
#198=AXIS2_PLACEMENT_3D('',#296,#242,#243);
#199=AXIS2_PLACEMENT_3D('',#298,#244,#245);
#200=AXIS2_PLACEMENT_3D('',#300,#246,#247);
#201=AXIS2_PLACEMENT_3D('',#301,#248,#249);
#202=AXIS2_PLACEMENT_3D('',#302,#250,#251);
#203=AXIS2_PLACEMENT_3D('',#303,#252,#253);
#204=AXIS2_PLACEMENT_3D('',#306,#255,#256);
#205=AXIS2_PLACEMENT_3D('',#307,#257,#258);
#206=AXIS2_PLACEMENT_3D('',#308,#259,#260);
#207=AXIS2_PLACEMENT_3D('',#310,#261,#262);
#208=AXIS2_PLACEMENT_3D('',#312,#264,#265);
#209=AXIS2_PLACEMENT_3D('',#313,#266,#267);
#210=DIRECTION('axis',(0.,0.,1.));
#211=DIRECTION('refdir',(1.,0.,0.));
#212=DIRECTION('center_axis',(-0.707106781186547,0.707106781186548,0.));
#213=DIRECTION('ref_axis',(0.707106781186548,0.707106781186547,0.));
#214=DIRECTION('center_axis',(-1.,8.4764708574162E-17,0.));
#215=DIRECTION('ref_axis',(8.4764708574162E-17,1.,0.));
#216=DIRECTION('center_axis',(-1.,8.4764708574162E-17,0.));
#217=DIRECTION('ref_axis',(8.4764708574162E-17,1.,0.));
#218=DIRECTION('center_axis',(-0.38268343236509,0.923879532511287,0.));
#219=DIRECTION('ref_axis',(0.923879532511287,0.38268343236509,0.));
#220=DIRECTION('',(-0.707106781186547,0.707106781186547,0.));
#221=DIRECTION('center_axis',(0.707106781186547,-0.707106781186548,0.));
#222=DIRECTION('ref_axis',(0.707106781186548,0.707106781186547,0.));
#223=DIRECTION('center_axis',(-0.38268343236509,0.923879532511287,0.));
#224=DIRECTION('ref_axis',(0.923879532511287,0.38268343236509,0.));
#225=DIRECTION('center_axis',(0.,1.,0.));
#226=DIRECTION('ref_axis',(1.,0.,0.));
#227=DIRECTION('center_axis',(0.,1.,0.));
#228=DIRECTION('ref_axis',(1.,0.,0.));
#229=DIRECTION('',(0.,1.,0.));
#230=DIRECTION('center_axis',(0.38268343236509,0.923879532511287,0.));
#231=DIRECTION('ref_axis',(0.923879532511287,-0.38268343236509,0.));
#232=DIRECTION('center_axis',(0.707106781186547,0.707106781186548,0.));
#233=DIRECTION('ref_axis',(0.707106781186548,-0.707106781186547,0.));
#234=DIRECTION('',(0.707106781186547,0.707106781186548,0.));
#235=DIRECTION('center_axis',(-0.707106781186547,-0.707106781186548,0.));
#236=DIRECTION('ref_axis',(0.707106781186548,-0.707106781186547,0.));
#237=DIRECTION('center_axis',(-0.707106781186547,0.707106781186548,0.));
#238=DIRECTION('ref_axis',(0.707106781186548,0.707106781186547,0.));
#239=DIRECTION('center_axis',(-0.707106781186547,0.707106781186548,0.));
#240=DIRECTION('ref_axis',(0.707106781186548,0.707106781186547,0.));
#241=DIRECTION('',(0.707106781186547,-0.707106781186548,0.));
#242=DIRECTION('center_axis',(0.38268343236509,-0.923879532511287,0.));
#243=DIRECTION('ref_axis',(0.923879532511287,0.38268343236509,0.));
#244=DIRECTION('center_axis',(1.,0.,0.));
#245=DIRECTION('ref_axis',(0.,1.,0.));
#246=DIRECTION('center_axis',(1.,0.,0.));
#247=DIRECTION('ref_axis',(0.,1.,0.));
#248=DIRECTION('center_axis',(0.38268343236509,-0.923879532511287,0.));
#249=DIRECTION('ref_axis',(0.923879532511287,0.38268343236509,0.));
#250=DIRECTION('center_axis',(-0.707106781186547,0.707106781186548,0.));
#251=DIRECTION('ref_axis',(0.,0.,1.));
#252=DIRECTION('center_axis',(0.,1.,0.));
#253=DIRECTION('ref_axis',(1.,0.,0.));
#254=DIRECTION('',(0.,-1.,0.));
#255=DIRECTION('center_axis',(0.,-1.,0.));
#256=DIRECTION('ref_axis',(1.,0.,0.));
#257=DIRECTION('center_axis',(-0.38268343236509,-0.923879532511287,0.));
#258=DIRECTION('ref_axis',(0.923879532511287,-0.38268343236509,0.));
#259=DIRECTION('center_axis',(0.707106781186547,0.707106781186548,0.));
#260=DIRECTION('ref_axis',(0.707106781186548,-0.707106781186547,0.));
#261=DIRECTION('center_axis',(0.707106781186547,0.707106781186548,0.));
#262=DIRECTION('ref_axis',(0.707106781186548,-0.707106781186547,0.));
#263=DIRECTION('',(-0.707106781186547,-0.707106781186547,0.));
#264=DIRECTION('center_axis',(0.707106781186547,0.707106781186548,0.));
#265=DIRECTION('ref_axis',(0.,0.,1.));
#266=DIRECTION('center_axis',(0.,1.,0.));
#267=DIRECTION('ref_axis',(0.,0.,1.));
#268=CARTESIAN_POINT('',(0.,0.,0.));
#269=CARTESIAN_POINT('Origin',(0.,12.,0.));
#270=CARTESIAN_POINT('',(0.,12.,-2.917));
#271=CARTESIAN_POINT('',(3.49676543189026E-16,16.1252609614423,3.57229471311283E-16));
#272=CARTESIAN_POINT('Origin',(0.,12.,0.));
#273=CARTESIAN_POINT('',(0.,12.,2.917));
#274=CARTESIAN_POINT('Origin',(0.,12.,0.));
#275=CARTESIAN_POINT('',(-2.917,10.7917390385577,3.57229471311283E-16));
#276=CARTESIAN_POINT('Origin',(0.,12.,0.));
#277=CARTESIAN_POINT('',(-10.5479118549597,18.4226508935174,-3.57229471311283E-16));
#278=CARTESIAN_POINT('',(-2.06263048072116,9.93736951927884,3.57229471311283E-16));
#279=CARTESIAN_POINT('Origin',(-8.48528137423857,20.4852813742386,0.));
#280=CARTESIAN_POINT('Origin',(0.,12.,0.));
#281=CARTESIAN_POINT('Origin',(0.,0.,0.));
#282=CARTESIAN_POINT('',(-2.917,0.,-3.57229471311283E-16));
#283=CARTESIAN_POINT('Origin',(0.,0.,0.));
#284=CARTESIAN_POINT('',(-2.917,0.,3.57229471311283E-16));
#285=CARTESIAN_POINT('Origin',(0.,12.,0.));
#286=CARTESIAN_POINT('Origin',(0.,12.,0.));
#287=CARTESIAN_POINT('',(6.42265089351741,22.5479118549597,-3.57229471311283E-16));
#288=CARTESIAN_POINT('',(-2.06263048072116,14.0626304807212,3.57229471311283E-16));
#289=CARTESIAN_POINT('Origin',(8.48528137423857,20.4852813742386,0.));
#290=CARTESIAN_POINT('Origin',(0.,12.,0.));
#291=CARTESIAN_POINT('',(-10.6066017177982,18.3639610306789,3.67394039744206E-16));
#292=CARTESIAN_POINT('Origin',(-8.48528137423857,20.4852813742386,0.));
#293=CARTESIAN_POINT('',(-3.,10.7573593128807,3.67394039744206E-16));
#294=CARTESIAN_POINT('',(-2.12132034355964,9.87867965644035,3.67394039744206E-16));
#295=CARTESIAN_POINT('',(0.,12.,3.));
#296=CARTESIAN_POINT('Origin',(0.,12.,0.));
#297=CARTESIAN_POINT('',(0.,16.2426406871193,3.67394039744206E-16));
#298=CARTESIAN_POINT('Origin',(0.,12.,0.));
#299=CARTESIAN_POINT('',(0.,12.,-3.));
#300=CARTESIAN_POINT('Origin',(0.,12.,0.));
#301=CARTESIAN_POINT('Origin',(0.,12.,0.));
#302=CARTESIAN_POINT('Origin',(-8.48528137423857,20.4852813742386,-6.11857468397245E-17));
#303=CARTESIAN_POINT('Origin',(0.,0.,0.));
#304=CARTESIAN_POINT('',(-3.,0.,3.67394039744206E-16));
#305=CARTESIAN_POINT('',(-3.,0.,3.67394039744206E-16));
#306=CARTESIAN_POINT('Origin',(0.,0.,0.));
#307=CARTESIAN_POINT('Origin',(0.,12.,0.));
#308=CARTESIAN_POINT('Origin',(0.,12.,0.));
#309=CARTESIAN_POINT('',(6.36396103067893,22.6066017177982,3.67394039744206E-16));
#310=CARTESIAN_POINT('Origin',(8.48528137423857,20.4852813742386,0.));
#311=CARTESIAN_POINT('',(-2.12132034355964,14.1213203435596,3.67394039744206E-16));
#312=CARTESIAN_POINT('Origin',(8.48528137423857,20.4852813742386,-6.11857468397245E-17));
#313=CARTESIAN_POINT('Origin',(2.75359157337582E-16,0.,-6.11857468397245E-17));
#314=UNCERTAINTY_MEASURE_WITH_UNIT(LENGTH_MEASURE(0.000393700787401575),
#319,'DISTANCE_ACCURACY_VALUE',
'Maximum model space distance between geometric entities at asserted c
onnectivities');
#315=UNCERTAINTY_MEASURE_WITH_UNIT(LENGTH_MEASURE(0.000393700787401575),
#319,'DISTANCE_ACCURACY_VALUE',
'Maximum model space distance between geometric entities at asserted c
onnectivities');
#316=(
GEOMETRIC_REPRESENTATION_CONTEXT(3)
GLOBAL_UNCERTAINTY_ASSIGNED_CONTEXT((#314))
GLOBAL_UNIT_ASSIGNED_CONTEXT((#319,#323,#324))
REPRESENTATION_CONTEXT('','3D')
);
#317=(
GEOMETRIC_REPRESENTATION_CONTEXT(3)
GLOBAL_UNCERTAINTY_ASSIGNED_CONTEXT((#315))
GLOBAL_UNIT_ASSIGNED_CONTEXT((#319,#323,#324))
REPRESENTATION_CONTEXT('','3D')
);
#318=DIMENSIONAL_EXPONENTS(1.,0.,0.,0.,0.,0.,0.);
#319=(
CONVERSION_BASED_UNIT('inch',#322)
LENGTH_UNIT()
NAMED_UNIT(#318)
);
#320=(
LENGTH_UNIT()
NAMED_UNIT(*)
SI_UNIT(.MILLI.,.METRE.)
);
#321=(
LENGTH_UNIT()
NAMED_UNIT(*)
SI_UNIT(.CENTI.,.METRE.)
);
#322=LENGTH_MEASURE_WITH_UNIT(LENGTH_MEASURE(25.4),#320);
#323=(
NAMED_UNIT(*)
PLANE_ANGLE_UNIT()
SI_UNIT($,.RADIAN.)
);
#324=(
NAMED_UNIT(*)
SI_UNIT($,.STERADIAN.)
SOLID_ANGLE_UNIT()
);
#325=SHAPE_DEFINITION_REPRESENTATION(#326,#327);
#326=PRODUCT_DEFINITION_SHAPE('',$,#329);
#327=SHAPE_REPRESENTATION('',(#184),#316);
#328=PRODUCT_DEFINITION_CONTEXT('part definition',#333,'design');
#329=PRODUCT_DEFINITION('PAY00004 Y - BRANCH, 6IN, 90DEG',
'PAY00004 Y - BRANCH, 6IN, 90DEG',#330,#328);
#330=PRODUCT_DEFINITION_FORMATION('',$,#335);
#331=PRODUCT_RELATED_PRODUCT_CATEGORY('PAY00004 Y - BRANCH, 6IN, 90DEG',
'PAY00004 Y - BRANCH, 6IN, 90DEG',(#335));
#332=APPLICATION_PROTOCOL_DEFINITION('international standard',
'automotive_design',2009,#333);
#333=APPLICATION_CONTEXT(
'Core Data for Automotive Mechanical Design Process');
#334=PRODUCT_CONTEXT('part definition',#333,'mechanical');
#335=PRODUCT('PAY00004 Y - BRANCH, 6IN, 90DEG',
'PAY00004 Y - BRANCH, 6IN, 90DEG',$,(#334));
#336=PRESENTATION_STYLE_ASSIGNMENT((#337));
#337=SURFACE_STYLE_USAGE(.BOTH.,#340);
#338=SURFACE_STYLE_RENDERING_WITH_PROPERTIES($,#344,(#339));
#339=SURFACE_STYLE_TRANSPARENT(0.);
#340=SURFACE_SIDE_STYLE('',(#341,#338));
#341=SURFACE_STYLE_FILL_AREA(#342);
#342=FILL_AREA_STYLE('',(#343));
#343=FILL_AREA_STYLE_COLOUR('',#344);
#344=COLOUR_RGB('',0.745098039215686,0.737254901960784,0.729411764705882);
ENDSEC;
END-ISO-10303-21;
